Cifras e Tablaturas
Lacey Sturm

Lacey Sturm

The Soldier

Cifras Cancelar Versão de Impressão
cifras

Lacey Sturm - The Soldier

fixar na tela  
Exibindo: vídeo-aula ver clipes redimensionar
  
Intro 

D#|--------------------------------------------------------------------------| 
A#|-10-10-10-10-10-10-10-10-10-10-10-10-10-10-10-10--------------------------| 
F#|--------------------------------------------------------------------------| 
C#|--------------------------------------------------------------------------| 
G#|--------------------------------------------------------------------------| 
C#|--------------------------------------------------------------------------| 


Verse 

(start at 0:08) 

D#|--------------------------------------------------------------------------| 
A#|--------------------------------------------------------------------------| 
F#|--------------------------------------------------------------------------| 
C#|---3------11---8------------3------11---8---------------------------------| 
G#|-----3-----------8----8-------3-----------8--10/13------------------------| 
C#|-3-----11----8-----11-----3-----11----8-----------------------------------| 
"You draw your line in the sand..." 

D#|--------------------------------------------------------------------------| 
A#|--------------------------------------------------------------------------| 
F#|--------------------------------------------------------------------------| 
C#|---3------11---8------------3------11---8---------------------------------| 
G#|-----3-----------8----8-------3-----------8--10/13------------------------| 
C#|-3-----11----8-----11-----3-----11----8-----------------------------------| 
"You brag that you’re a grenade..." 

D#|--------------------------------------------------------------------------| 
A#|--------------------------------------------------------------------------| 
F#|--------------------------------------------------------------------------| 
C#|---3------11---8------------3------11---8---------------------------------| 
G#|-----3-----------8----8-------3-----------8--10/13------------------------| 
C#|-3-----11----8-----11-----3-----11----8-----------------------------------| 
"The time will come..." 

D#|--------------------------------------------------------------------------| 
A#|--------------------------------------------------------------------------| 
F#|-X-X-X-X-X-X-X-X-X-X-X-X-X-X-X-X-X-X-X-X-X-X-X-X-X-X-X-X-X-X-X-X----------| 
C#|-X-X-X-X-X-X-X-X-X-X-X-X-X-X-X-X-X-X-X-X-X-X-X-X-X-X-X-X-X-X-X-X----------| 
G#|-X-X-X-X-X-X-X-X-X-X-X-X-X-X-X-X-X-X-X-X-X-X-X-X-X-X-X-X-X-X-X-X----------| 
C#|-X-X-X-X-X-X-X-X-X-X-X-X-X-X-X-X-X-X-X-X-X-X-X-X-X-X-X-X-X-X-X-X----------| 
"Yeah, I might die in a day..." 


Chorus 

D#|--------------13--------------13------------------------------------------| 
A#|--------------------------------------------------------------------------| 
F#|--------------------------------------------------6-6-6-6-6-6-3-3---------| 
C#|-3-1-3--6-1-3----3-1-3--6-1-3-----3-1-3--6-1-3-6--6-6-6-6-6-6-3-3---------| 
G#|-3-1-3--6-1-3----3-1-3--6-1-3-----3-1-3--6-1-3-6--4-4-4-4-4-4-1-1---------| 
C#|-3-1-3--6-1-3----3-1-3--6-1-3-----3-1-3--6-1-3-6--------------------------| 
"I'm gonna stand my ground..." 

D#|--------------13--------------13------------------------------------------| 
A#|--------------------------------------------------------------------------| 
F#|--------------------------------------------------6-6-6-6-6-6-3-3---------| 
C#|-3-1-3--6-1-3----3-1-3--6-1-3-----3-1-3--6-1-3-6--6-6-6-6-6-6-3-3---------| 
G#|-3-1-3--6-1-3----3-1-3--6-1-3-----3-1-3--6-1-3-6--4-4-4-4-4-4-1-1---------| 
C#|-3-1-3--6-1-3----3-1-3--6-1-3-----3-1-3--6-1-3-6--------------------------| 
"So what, you raise your voice..." 


Link 

D#|--------------------------------------------------------------------------| 
A#|-10-10-10-10-10-10-10-10-10-10--------------------------------------------| 
F#|--------------------------------------------------------------------------| 
C#|--------------------------------------------------------------------------| 
G#|--------------------------------------------------------------------------| 
C#|--------------------------------------------------------------------------| 


Verse 

D#|--------------------------------------------------------------------------| 
A#|--------------------------------------------------------------------------| 
F#|--------------------------------------------------------------------------| 
C#|---3------11---8------------3------11---8---------------------------------| 
G#|-----3-----------8----8-------3-----------8--10/13------------------------| 
C#|-3-----11----8-----11-----3-----11----8-----------------------------------| 
"What’s a life without a cause..." 

D#|--------------------------------------------------------------------------| 
A#|--------------------------------------------------------------------------| 
F#|--------------------------------------------------------------------------| 
C#|---3------11---8------------3------11---8---------------------------------| 
G#|-----3-----------8----8-------3-----------8--10/13------------------------| 
C#|-3-----11----8-----11-----3-----11----8-----------------------------------| 
"They say that I'm a fool..." 

D#|--------------------------------------------------------------------------| 
A#|--------------------------------------------------------------------------| 
F#|--------------------------------------------------------------------------| 
C#|---3------11---8------------3------11---8---------------------------------| 
G#|-----3-----------8----8-------3-----------8--10/13------------------------| 
C#|-3-----11----8-----11-----3-----11----8-----------------------------------| 
"The time will come..." 

D#|--------------------------------------------------------------------------| 
A#|--------------------------------------------------------------------------| 
F#|-X-X-X-X-X-X-X-X-X-X-X-X-X-X-X-X-X-X-X-X-X-X-X-X-X-X-X-X-X-X-X-X----------| 
C#|-X-X-X-X-X-X-X-X-X-X-X-X-X-X-X-X-X-X-X-X-X-X-X-X-X-X-X-X-X-X-X-X----------| 
G#|-X-X-X-X-X-X-X-X-X-X-X-X-X-X-X-X-X-X-X-X-X-X-X-X-X-X-X-X-X-X-X-X----------| 
C#|-X-X-X-X-X-X-X-X-X-X-X-X-X-X-X-X-X-X-X-X-X-X-X-X-X-X-X-X-X-X-X-X----------| 
"Yeah, I might die in a day..." 


Chorus 

D#|--------------13--------------13------------------------------------------| 
A#|--------------------------------------------------------------------------| 
F#|--------------------------------------------------6-6-6-6-6-6-3-3---------| 
C#|-3-1-3--6-1-3----3-1-3--6-1-3-----3-1-3--6-1-3-6--6-6-6-6-6-6-3-3---------| 
G#|-3-1-3--6-1-3----3-1-3--6-1-3-----3-1-3--6-1-3-6--4-4-4-4-4-4-1-1---------| 
C#|-3-1-3--6-1-3----3-1-3--6-1-3-----3-1-3--6-1-3-6--------------------------| 
"I'm gonna stand my ground..." 

D#|--------------13----------------------------------------------------------| 
A#|--------------------------------------------------------------------------| 
F#|----------------------------------------------------6-6-6-6-6-6-3-3-------| 
C#|-3-1-3--6-1-3----3-1-3--6-1-3--1----3-1-3--6-1-3-6--6-6-6-6-6-6-3-3-------| 
G#|-3-1-3--6-1-3----3-1-3--6-1-3--1----3-1-3--6-1-3-6--4-4-4-4-4-4-1-1-------| 
C#|-3-1-3--6-1-3----3-1-3--6-1-3--1----3-1-3--6-1-3-6------------------------| 
"So what, you raise your voice..." 


Bridge  

(Rhythm) 

PM-------------|  PM---------------|   PM---------------| 
D#|---------------------------------------------------------------------------------| 
A#|---------------------------------------------------------------------------------| 
F#|---------------------------------------------------------------------------------| 
C#|-------------8-------------------10-------------------11-13-13-13-13-13-13-13-13-| 
G#|-------------8-------------------10-------------------11-13-13-13-13-13-13-13-13-| 
C#|-8-8-8-8-8-8-8-10-10-10-10-10-10-10-11-11-11-11-11-11-11-13-13-13-13-13-13-13-13-| 
"I've seen a dying man..." 


Bridge 
  
(Lead) 

D#|---------------------------------------------------------------------------------| 
A#|-------------11-------------------13------------------14-15b---------------------| 
F#|---------------------------------------------------------------------------------| 
C#|---------------------------------------------------------------------------------| 
G#|---------------------------------------------------------------------------------| 
C#|---------------------------------------------------------------------------------| 


Solo  

(Rhythm) 

e|---------------------------------------------------------------------------| 
B|---------------------------------------------------------------------------| 
G|---------------------------------------------------------------------------| 
D|-3--3--3-6-8--3--3--3-6-8--3--3--3-6-8--6-6-6-6-8-8-8-8--------------------| 
A|-3--3--3-6-8--3--3--3-6-8--3--3--3-6-8--6-6-6-6-8-8-8-8--------------------| 
E|-3--3--3-6-8--3--3--3-6-8--3--3--3-6-8--6-6-6-6-8-8-8-8--------------------| 


Solo 

 (Lead) 

D#|------------------------------------8-9-11-13-16-15--13-15-16-----16\-16\-15\-15\--| 
A#|-------------------------------9-11---------------------------13-------------------| 
F#|-8h10b-8h10b-8h10b-8h10b-8h10b-----------------------------------------------------| 
C#|-----------------------------------------------------------------------------------| 
G#|-----------------------------------------------------------------------------------| 
C#|-----------------------------------------------------------------------------------| 


Chorus 

D#|--------------13--------------13------------------------------------------| 
A#|--------------------------------------------------------------------------| 
F#|--------------------------------------------------6-6-6-6-6-6-3-3---------| 
C#|-3-1-3--6-1-3----3-1-3--6-1-3-----3-1-3--6-1-3-6--6-6-6-6-6-6-3-3---------| 
G#|-3-1-3--6-1-3----3-1-3--6-1-3-----3-1-3--6-1-3-6--4-4-4-4-4-4-1-1---------| 
C#|-3-1-3--6-1-3----3-1-3--6-1-3-----3-1-3--6-1-3-6--------------------------| 
"I'm gonna stand my ground..."  

D#|--------------13--------------13------------------------------------------| 
A#|--------------------------------------------------------------------------| 
F#|--------------------------------------------------6-6-6-6-6-6-3-3---------| 
C#|-3-1-3--6-1-3----3-1-3--6-1-3-----3-1-3--6-1-3-6--6-6-6-6-6-6-3-3---------| 
G#|-3-1-3--6-1-3----3-1-3--6-1-3-----3-1-3--6-1-3-6--4-4-4-4-4-4-1-1---------| 
C#|-3-1-3--6-1-3----3-1-3--6-1-3-----3-1-3--6-1-3-6--------------------------| 
"So what, you raise your voice..." 

D#|-----------------------------------------| 
A#|-----------------------------------------| 
F#|-----------------6-6-6-6-6-6-3-3-3-3-----| 
C#|-3-1-3--6-1-3-6--6-6-6-6-6-6-3-3-3-3-----| 
G#|-3-1-3--6-1-3-6--4-4-4-4-4-4-1-1-1-1-----| 
C#|-3-1-3--6-1-3-6--------------------------| 
"No, I'm not scared of you anymore..." 



************************************ 
|h    Hammer-on 
| b   Bend 
| /   Slide up 
************************************ 
  

top 5 | lacey sturm
top rock'n roll
Outras músicas do artista letras do(a) Lacey Sturm
Top cifras »Top artistas »
Petaxxon Comunicação Online
Cifras.com.br - Melhor e mais completo site de cifras e tablaturas do Brasil
Mais de 1 milhão de acordes de músicas cadastradas desde 2003
As informações contidas no nosso site são colaborações de seus usuários e podem conter erros, sendo assim, não nos responsabilizamos sobre nenhuma destas.
close
menos
mais
close
Cor dos acordes:

Cor da letra:

 

save
close
close
 
redimensionar