Cifras e Tablaturas
Lacrimas Profundere

Lacrimas Profundere

All You Radiance

Cifras Cancelar Versão de Impressão Print

Lacrimas Profundere - All You Radiance

Tom:

  			(98% secure) 

-/--------------------------------------------------------------------------------------------------------/ 
-/--------------------------------------------------------------------------------------------------------/ 
-/--------------------------------------------------------------------------------------------------------/ 
-/-9-7/4-4-5-4-4h5-5-9-7/4-4-5-4/2-2-2/5-4-2-2/4-5-5-4-4h5-5-5/7-5-9-5-4-5-5-4/2-2/4-5-9-7/4-4-5-4-4h5-5--/ 
-/--------------------------------------------------------------------------------------------------------/ 
-/--------------------------------------------------------------------------------------------------------/ 

-/-------------------------------------------------------------------------------------/ 
-/-------------------------------------------------------------------------------------/ 
-/-------------------------------------------------------------------------------------/ 
-/-9-7/4-4-5-4/2-2-2/5-4-2-2/4-5-5-4-4h5-5-5/7-5-9-5-4-5-5-4/2---(piano interlude)-----/ 
-/-------------------------------------------------------------------------------------/ 
-/-------------------------------------------------------------------------------------/ 
(50% secure) 
-/-----------------------------------------------/ 
-/-----------------------------------------------/ 
-/-----------------------------------------------/  (x2) 
-/--------4-------5-5-2-2-2/7-5------------------/ 
-/--2-2-2-2-2---2-3-3-0--------------------------/ 
-/--0--3------3----------------------------------/ 
(tremolo part) 
(98% secure) 
-/----------------------------------------------------------------------------------------------/ 
-/----------------------------------------------------------------------------------------------/ 
-/----------------------------------------------------------------------------------------------/ 
-/-4T------4/7T-5T-4T-------4/7T-5T-4T-5T-----2/4T-4T-5T-----4T--5T--4T--5T--4T--5T-------------/ 
-/----------------------------------------------------------------------------------------------/ 
-/----------------------------------------------------------------------------------------------/ 

I dont know the acoustic part 
Chords 
(100% secure%) 
-/------------------------------------------------------------------/ 
-/------------------------------------------------------------------/ 
-/------5----7----2----4--------------------------------------------/  (x2) 
-/-2----5----7----2----4----2---------------------------------------/ 
-/-2----3----5----0----2----2---------------------------------------/ 
-/-0------------------------0---------------------------------------/ 


Final part 
(100% secure) 
-/-------------------------------------------------------------------/ 
-/-------------------------------------------------------------------/ 
-/-------------------------------------------------------------------/  (x2) 
-/-4h5-5-4/2-2-2h4-4--4-2-0-0h2-2-2-0-2-2h4-4-5-4-5/7-5--------------/ 
-/-------------------------------------------------------------------/ 
-/-------------------------------------------------------------------/ 

the first part is repeated several times at the end 
and part of the tremolo is repeated twice in the song 
I love this song then transcribed, another fact is that many vibrato throughout the song 
    	
fixar
fixar inscrever-se

enviado porenviado por: jov-correa
cifra enviadaCorrigida por: sem correções
logo top cifrasComente
ico música do artistaMúsicas deste artista
ico curtiuCurtiu?
ico destaqueDestaque
Petaxxon Comunicação Online

Cifras.com.br - Melhor e mais completo site de cifras e tablaturas do Brasil Mais de 1 milhão de acordes de músicas cadastradas desde 2003
As informações contidas no nosso site são colaborações de seus usuários e podem conter erros, sendo assim, não nos responsabilizamos sobre nenhuma destas.

close
menos
mais
close
Cor dos acordes:

Cor da letra:

close
Alinhar acordes a direita Alinhar acordes a esquerda Alinhar acordes em baixo Alinhar acordes no topo
close
  Mostrar todos os acordes Esconder acordes muito fáceis Esconder acordes fáceis Esconder acordes intermediários
redimensionar
glossário