Cifras e Tablaturas
Lana Del Rey

Lana Del Rey

National Anthem

Cifras Cancelar Versão de Impressão
cifras

Lana Del Rey - National Anthem

fixar na tela  
Exibindo: vídeo-aula ver clipes redimensionar
   
 
Capo on 3 

e|-----------x----------x----------x-----------x---------------------------------| 
B|------1----x-----1----x------0---x----0---0--x---------------------------------| 
G|------0----x-----2----x------0---x----0---0--x---------------------------------| 
D|-----------x----------x----------x-----------x---------------------------------|        x6 
A|--3--------x---0------x---1------x-----------x---------------------------------| 
E|-----------x----------x----------x-----------x---------------------------------| 

Chorus: 

e|-----------x----------x------3---x----3-----x----------------------------------| 
B|-----1-----x------1---x------0---x----0---0------------------------------------| 
G|-----2-----x------2---x----------x-----------x---------------------------------|      x2 
D|--3--------x---2------x---0------x-----------x---------------------------------| 
A|-----------x----------x----------x-----------x---------------------------------| 
E|-----------x----------x----------x-----------x---------------------------------| 

e|-----------x----------x----------x-----------x---------------------------------| 
B|------1----x-----1----x------0---x----0---0--x---------------------------------| 
G|------0----x-----2----x------0---x----0---0--x---------------------------------| 
D|-----------x----------x----------x-----------x---------------------------------| 
A|--3--------x---0------x---1------x-----------x---------------------------------| 
E|-----------x----------x----------x-----------x---------------------------------| 

e|-----------x----------x------3---x----3---3--x---------------------------------| 
B|-----1-----x------1---x------0---x----0---0--x---------------------------------| 
G|-----2-----x------2---x----------x-----------x---------------------------------| 
D|--3--------x---2------x---0------x-----------x---------------------------------| 
A|-----------x----------x----------x-----------x---------------------------------| 
E|-----------x----------x----------x-----------x---------------------------------| 
  

top 5 | lana del rey
top pop music
Outras músicas do artista letras do(a) Lana Del Rey
Top cifras »Top artistas »
Petaxxon Comunicação Online
Cifras.com.br - Melhor e mais completo site de cifras e tablaturas do Brasil
Mais de 1 milhão de acordes de músicas cadastradas desde 2003
As informações contidas no nosso site são colaborações de seus usuários e podem conter erros, sendo assim, não nos responsabilizamos sobre nenhuma destas.
close
menos
mais
close
Cor dos acordes:

Cor da letra:

 

save
close
close
 
redimensionar