Cifras e Tablaturas
Lee Ann Womack

Lee Ann Womack

I'll Think Of A Reason Later

Cifras Cancelar Versão de Impressão

Lee Ann Womack - I'll Think Of A Reason Later

Tom:

  			Intro                                                       
E---|------------------------------------------------------------------- 
B---|------------------------------------------------------------------- 
G---|------------------------------------------------------------------- 
D---|------------------5h6p5--------------5/6--8------------------------ 
A---|--6--6-------6h8---------8^--6--6h8-------------------------------- 
E---|--------6h8-------------------------------------------------------- 
                                                                         
 
                                                                         
E---|------------------------------------------------------------------- 
B---|------------------------------------------------------------------- 
G---|------------------------------------------------------------------- 
D---|------------------5h6p5--------------5/6--8------------------------ 
A---|--6--6-------6h8---------8^--6--6h8-------------------------------- 
E---|--------6h8-------------------------------------------------------- 
    	
fixar
fixar inscrever-se

enviado porenviado por: anônimo
cifra enviadaCorrigida por: sem correções
logo top cifrasComente
ico música do artistaMúsicas deste artista
ico curtiuCurtiu?
ico destaqueDestaque
Petaxxon Comunicação Online

Cifras.com.br - Melhor e mais completo site de cifras e tablaturas do Brasil Mais de 1 milhão de acordes de músicas cadastradas desde 2003
As informações contidas no nosso site são colaborações de seus usuários e podem conter erros, sendo assim, não nos responsabilizamos sobre nenhuma destas.

close
menos
mais
close
Cor dos acordes:

Cor da letra:

close
Alinhar acordes a direita Alinhar acordes a esquerda Alinhar acordes em baixo Alinhar acordes no topo
close
  Mostrar todos os acordes Esconder acordes muito fáceis Esconder acordes fáceis Esconder acordes intermediários
redimensionar
glossário