Cifras e Tablaturas
Legião Urbana

Legião Urbana

A Ordem Dos Templários

Ano: 1991
Album : Slidepac Legião Urbana - V

Cifras Cancelar Versão de Impressão Print

Legião Urbana - A Ordem Dos Templários

Tom:

  			 
Intro.: 
E|---------2---------------2---------------2---------------2-------| 
B|-----5-------3-------5-------3-------5-------3-------5-------3---| 
G|---4---4---4---4---4---4---4---4---4---4---4---4---4---4---4---4-| 
D|-2---------------2---------------2---------------2---------------| 
A|-----------------------------------------------------------------| 
E|-----------------------------------------------------------------| 
 
E|---------2---3-----------0---2-----------------------3-------2---|  
B|-----5---------0-----3---------0----------2---3----3---3---2---2-| 
G|---4---4---4-------2---2---2----------4---------0----------------| 
D|-2---------------0------------------4---4---4--------------------| 
A|----------------------------------2------------------------------| 
E|-------------------------------------------------3-------2-------| 
 
E|---------2---3-----------0---2-----------------------3-------2---|  
B|-----5---------0-----3---------0----------2---3----3---3---2---2-| 
G|---4---4---4-------2---2---2----------4---------0----------------| 
D|-2---------------0------------------4---4---4--------------------| 
A|----------------------------------2------------------------------| 
E|-------------------------------------------------3-------2-------| 
 
 
E|-2s7-7-7-5-7--------------7-7-5-7--------------------------------5-------------| 
B|-------------8-7-5-7--7-5---------8-7-5-7--7-5--5-5-3-5-8-7-5-7----8-7-5-3-5-5-| 
G|-------------------------------------------------------------------------------| 
D|-------------------------------------------------------------------------------| 
A|-------------------------------------------------------------------------------| 
E|-------------------------------------------------------------------------------| 
 
E|---7-7s12--12-12-10-9-7~--7---------7~--7-9-7-5-3-2-0-3-5-7-7~-| 
B|-----------------------------10--8-----------------------------| 
G|---------------------------------------------------------------| 
D|---------------------------------------------------------------| 
A|---------------------------------------------------------------| 
E|---------------------------------------------------------------| 
 
E|---7-7s12--12-12-10-9-7~--7---------7~--7-9-7-5-3-2--| 
B|-----------------------------10--8-------------------| 
G|-----------------------------------------------------| 
D|-----------------------------------------------------| 
A|-----------------------------------------------------| 
E|-----------------------------------------------------| 
 
E|-0-2-0---(0)------------------------------------------------| 
B|-------3------4~--5-7-4-5-7-5--7-8-5-7-8-7--7-10-7-8-10-10~-| 
G|------------------------------------------------------------| 
D|------------------------------------------------------------| 
A|------------------------------------------------------------| 
E|------------------------------------------------------------| 
 
E|-7~-8~--12-11-12-8~-7~-------------------------| 
B|------------------------10~-8-7---7------------| 
G|--------------------------------9---4~---4-7-4-| 
D|-----------------------------------------------| 
A|-----------------------------------------------| 
E|-----------------------------------------------| 
 
 
2ªparte 
E|---------2---------------2---------------2---------------2-------| 
B|-----5-------3-------5-------3-------5-------3-------5-------3---| 
G|---4---4---4---4---4---4---4---4---4---4---4---4---4---4---4---4-| 
D|-2---------------2---------------2---------------2---------------| 
A|-----------------------------------------------------------------| 
E|-----------------------------------------------------------------| 
 
E|---------2---3-----------0---2-----------------------3-------2---|  
B|-----5---------0-----3---------0----------2---3----3---3---2---2-| 
G|---4---4---4-------2---2---2----------4---------0----------------| 
D|-2---------------0------------------4---4---4--------------------| 
A|----------------------------------2------------------------------| 
E|-------------------------------------------------3-------2-------| 
 
E|---------2---3-----------0---2-----------------------3-------2---|  
B|-----5---------0-----3---------0----------2---3----3---3---2---2-| 
G|---4---4---4-------2---2---2----------4---------0----------------| 
D|-2---------------0------------------4---4---4--------------------| 
A|----------------------------------2------------------------------| 
E|-------------------------------------------------3-------2-------| 
 
 
E|-2s7-7-7-5-7--------------7-7-5-7--------------------------------5-------------| 
B|-------------8-7-5-7--7-5---------8-7-5-7--7-5--5-5-3-5-8-7-5-7----8-7-5-3-5-5-| 
G|-------------------------------------------------------------------------------| 
D|-------------------------------------------------------------------------------| 
A|-------------------------------------------------------------------------------| 
E|-------------------------------------------------------------------------------| 
 
E|---7-7s12--12-12-10-9-7~--7---------7~--7-9-7-5-3-2-0-3-5-7-7~-| 
B|-----------------------------10--8-----------------------------| 
G|---------------------------------------------------------------| 
D|---------------------------------------------------------------| 
A|---------------------------------------------------------------| 
E|---------------------------------------------------------------| 
 
E|---7-7s12--12-12-10-9-7~--7---------7~--7-9-7-5-3-2--| 
B|-----------------------------10--8-------------------| 
G|-----------------------------------------------------| 
D|-----------------------------------------------------| 
A|-----------------------------------------------------| 
E|-----------------------------------------------------| 
 
E|-0-2-0---(0)------------------------------------------------| 
B|-------3------4~--5-7-4-5-7-5--7-8-5-7-8-7--7-10-7-8-10-10~-| 
G|------------------------------------------------------------| 
D|------------------------------------------------------------| 
A|------------------------------------------------------------| 
E|------------------------------------------------------------| 
 
E|-7~-8~--12-11-12-8~-7~-------------------------| 
B|------------------------10~-8-7---7------------| 
G|--------------------------------9---4~---4-7-4-| 
D|-----------------------------------------------| 
A|-----------------------------------------------| 
E|-----------------------------------------------| 
 
 
Final 
E|-------------------------| 
B|-------------------------| 
G|-(5~-5~)-(3~)-(2~)-(1~)--|2x 
D|-------------------------| 
A|-------------------------| 
E|-------------------------| 
 
E|-15-15-17-17-19-19----------| 
B|--------------------15-17~~-| 
G|----------------------------| 
D|----------------------------| 
A|----------------------------| 
E|----------------------------| 
 
Notações: 
s = slide 
()= Let ring 
~ = vibrato 
Trancrita por:Gabriel Ysllu Chagas 
 
 
 
_______________________________________________________ 
Contribuição: ([email protected]) 
 

    	

enviado porenviado por: anônimo
cifra enviadaCorrigida por: sem correções
logo top cifrasComente
ico música do artistaMúsicas deste artista
ico curtiuCurtiu?
ico destaqueDestaque
Petaxxon Comunicação Online

Cifras.com.br - Melhor e mais completo site de cifras e tablaturas do Brasil Mais de 1 milhão de acordes de músicas cadastradas desde 2003
As informações contidas no nosso site são colaborações de seus usuários e podem conter erros, sendo assim, não nos responsabilizamos sobre nenhuma destas.

close
menos
mais
close
Cor dos acordes:

Cor da letra:

close
Alinhar acordes a direita Alinhar acordes a esquerda Alinhar acordes em baixo Alinhar acordes no topo
close
  Mostrar todos os acordes Esconder acordes muito fáceis Esconder acordes fáceis Esconder acordes intermediários
redimensionar
glossário