Cifras e Tablaturas
Legião Urbana

Legião Urbana

Daniel na Cova dos Leões

Ano: 1986
Album : Dois
Compositor : (Renato Russo / Renato Rocha)

Cifras Cancelar Versão de Impressão Print

Legião Urbana - Daniel na Cova dos Leões

Tom: Am

  			                    1     2        3     4
e------------------|-----|-10-----|-----|-7-----|
B-10---------8-----|-8---|----8-7-|-8---|---8---|
G----9-7-9/7---7-7-|---7-|--------|---7-|-----7-|
D------------------|-----|--------|-----|-------|
A------------------|-----|--------|-----|-------|
E------------------|-----|--------|-----|-------|

Canto 1 (1a parte)  1     2       3     4
e------------------|-----|-7-----|-----|-7-----|
B-10---------8-----|-8---|---8---|-8---|---8---|
G----9-7-9/7---7-7-|---7-|-----7-|---7-|-----7-|
D------------------|-----|-------|-----|-------|
A------------------|-----|-------|-----|-------|
E------------------|-----|-------|-----|-------|

 2a parte           1,3,4 2
e------------------|-----|-8-7-|-5-------------------
B-10---------8-----|-8---|-----|-6                  -
G----9-7-9/7---7-7-|---7-|-----|-7 batida ^!^!^!^!^ -
D------------------|-----|-----|-7                  -
A------------------|-----|-----|-5   "número 1"     -
E------------------|-----|-----|---------------------

e-8-------------8------------6-----------------------------|
B-10          --8-          -6-          -10---------8-----|
G-10 batida 1 --9- batida 1 -7- batida 1 ----9-7-9/7---7-7-|
D-10          -10-          -8-          ------------------|
A-8           -10-          -8-          ------------------|
E---------------8------------6-----------------------------|

 1     2     3     4       Canto 3 (1a parte) 1     2      3
e-----|-----|-----|-7-----|------------------|-----|------|-------------------------|
B-8---|-8-7-|-8---|---8---|-10---------8-----|-8---|-10-8-|-8---10---------10-----8-|
G---7-|-----|---7-|-----7-|----9-7-9/7---7-7-|---7-|------|---7----9-7-9/----9-7----|
D-----|-----|-----|-------|------------------|-----|------|-------------------------|
A-----|-----|-----|-------|------------------|-----|------|-------------------------|
E-----|-----|-----|-------|------------------|-----|------|-------------------------|

                    1       2       3     4
e------------------|-7-----|-7-----|-----|-----|
B-10---------8-----|---8---|---8---|-8---|-8---|
G----9-7-9/7---7-7-|-----7-|-----7-|---7-|---7-|
D------------------|-------|-------|-----|-----|
A------------------|-------|-------|-----|-----|
E------------------|-------|-------|-----|-----|
    	

enviado porenviado por: amendesc
cifra enviadaCorrigida por: sem correções
logo top cifrasComente
ico música do artistaMúsicas deste artista
ico curtiuCurtiu?
ico destaqueDestaque
Petaxxon Comunicação Online

Cifras.com.br - Melhor e mais completo site de cifras e tablaturas do Brasil Mais de 1 milhão de acordes de músicas cadastradas desde 2003
As informações contidas no nosso site são colaborações de seus usuários e podem conter erros, sendo assim, não nos responsabilizamos sobre nenhuma destas.

close
menos
mais
close
Cor dos acordes:

Cor da letra:

close
Alinhar acordes a direita Alinhar acordes a esquerda Alinhar acordes em baixo Alinhar acordes no topo
close
  Mostrar todos os acordes Esconder acordes muito fáceis Esconder acordes fáceis Esconder acordes intermediários
redimensionar
glossário