Cifras e Tablaturas
Legião Urbana

Legião Urbana

Shubert Landier

Cifras Cancelar Versão de Impressão Print

Legião Urbana - Shubert Landier

Tom: D

  			 
Schubert Länder  
(Renato Russo) 
 
 
 
     D           G             D             A          D 
 E--5--5--10--7--------7--5--------5--------0------| 
 B---------------8--8--------7--7-----8--8-----7---| 
 G-------------------------------------------------| 
 D-------------------------------------------------| 
 A-------------------------------------------------| 
 E-------------------------------------------------| 
 
 
     D           G             D             A          D 
 E--5--5--10--7--------7--5--------5--------5------| 
 B---------------8--8--------7--7-----8--8-----7---| 
 G-------------------------------------------------| 
 D-------------------------------------------------| 
 A-------------------------------------------------| 
 E-------------------------------------------------| 
 
 
     D           G                  D             A         D 
 E--5--5--14--12---------12--10--------7--5--5------ B---------------14--14----------7--7----------8--7- 
 G-------------------------------------------------- 
 D-------------------------------------------------- 
 A-------------------------------------------------- 
 E-------------------------------------------------- (2x) 
 
Cifrada por Lucas Queiroga 
 
_______________________________________________________ 
Contribuição: ([email protected]) 

    	

enviado porenviado por: anônimo
cifra enviadaCorrigida por: sem correções
logo top cifrasComente
ico música do artistaMúsicas deste artista
ico curtiuCurtiu?
ico destaqueDestaque
Petaxxon Comunicação Online

Cifras.com.br - Melhor e mais completo site de cifras e tablaturas do Brasil Mais de 1 milhão de acordes de músicas cadastradas desde 2003
As informações contidas no nosso site são colaborações de seus usuários e podem conter erros, sendo assim, não nos responsabilizamos sobre nenhuma destas.

close
menos
mais
close
Cor dos acordes:

Cor da letra:

close
Alinhar acordes a direita Alinhar acordes a esquerda Alinhar acordes em baixo Alinhar acordes no topo
close
  Mostrar todos os acordes Esconder acordes muito fáceis Esconder acordes fáceis Esconder acordes intermediários
redimensionar
glossário