Cifras e Tablaturas
Legião Urbana
Cifras Cancelar Versão de Impressão Print

Legião Urbana - Vinte E Nove

Tom:

  			INTRO.: 
 
E---------------0------------------------------------- 
B----0--1--0--------3--------------------------------- 
G-2----------2---------------------------------------- 
D----------------------------------------------------- 
A----------------------------------------------------- 
E----------------------------------------------------- 
 
E---------------2----3-------------------------------- 
B----0--1--0------------------------------------------ 
G-2----------2---------------------------------------- 
D----------------------------------------------------- 
A----------------------------------------------------- 
E----------------------------------------------------- 
 
Repetir duas vezes as duas tablaturas. 

    	

enviado porenviado por: Electro
cifra enviadaCorrigida por: sem correções
logo top cifrasComente
ico música do artistaMúsicas deste artista
ico curtiuCurtiu?
ico destaqueDestaque
Petaxxon Comunicação Online

Cifras.com.br - Melhor e mais completo site de cifras e tablaturas do Brasil Mais de 1 milhão de acordes de músicas cadastradas desde 2003
As informações contidas no nosso site são colaborações de seus usuários e podem conter erros, sendo assim, não nos responsabilizamos sobre nenhuma destas.

close
menos
mais
close
Cor dos acordes:

Cor da letra:

close
Alinhar acordes a direita Alinhar acordes a esquerda Alinhar acordes em baixo Alinhar acordes no topo
close
  Mostrar todos os acordes Esconder acordes muito fáceis Esconder acordes fáceis Esconder acordes intermediários
redimensionar
glossário