Cifras e Tablaturas
Leo Nine

Leo Nine

Satisfied

Cifras Cancelar Versão de Impressão

Leo Nine - Satisfied

Tom: C#m

  			Tabbed by Matt Sheumack([email protected]) 
 
Intro: (lightly picked,clean) 
 
|C#m	|	|A	|E 
|C#m	|	|A	|E 
 
Verse 1: 
C#m	  		A 
Open to Persuation 
E 
Can't believe anyhow 
C#m 
Kids are all late for school 
    A 		      E 
But you think they're fine 
 
C#m	  		A 
Bringing home the bacon 
E 
Somebody elses time 
G#7 
Kids are acting up 
                    A 
But you say they're fine 
 
Chorus: (distortion) 
 
   D#          C# B C# B 
e|--------------------------------------------------------------| 
B|--------------------------------------------------------------| 
G|--------------------------------------------------------------| 
D|---------------------9--9--9--9--9--9--9--9--9--9--9--9--9--9-| 
A|-13-13-13-13-11-9-11-9--9--9--9--9--9--9--9--9--9--9--9--9--9-| 
E|-11-11-11-11-9--7-9--7--7--7--7--7--7--7--7--7--7--7--7--7--7-| 
whateverkeeps em offyour mind 
 
     D#     E      A 
e|--------------------------------------------------------------| 
B|--------------------------------------------------------------| 
G|--------------------------------------------------------------| 
D|---8------9---------------------------------------------------| 
A|---6------7------7--7--7--7--7--7--7--7--7--7--7--7--7--7-----| 
E|-----------------5--5--5--5--5--5--5--5--5--5--5--5--5--5-----| 
     Bring  it     home 
 
   D#          C# B C# B 
e|--------------------------------------------------------------| 
B|--------------------------------------------------------------| 
G|--------------------------------------------------------------| 
D|---------------------9--9--9--9--9--9--9--9--9--9--9--9--9--9-| 
A|-13-13-13-13-11-9-11-9--9--9--9--9--9--9--9--9--9--9--9--9--9-| 
E|-11-11-11-11-9--7-9--7--7--7--7--7--7--7--7--7--7--7--7--7--7-| 
Theyllnever everkeepit quiet 
 
     D#     E      A 
e|--------------------------------------------------------------| 
B|--------------------------------------------------------------| 
G|--------------------------------------------------------------| 
D|---8------9------7--7--7--7--7--7--7--7--7--7--7--7--7--7-----| 
A|---6------7------7--7--7--7--7--7--7--7--7--7--7--7--7--7-----| 
E|-----------------5--5--5--5--5--5--5--5--5--5--5--5--5--5-----| 
     Bring  it     home 
 
Whatever keeps u satis- 
   C#			    E			     B 
e|--------------------------------------------------------------------------| 
B|--------------------------------------------------------------------------| 
G|--------------------------9--9--9--9--9--9--9--9--------------------------| 
D|-11-11-11-11-11-11-11-11--9--9--9--9--9--9--9--9---9--9--9--9--9--9--9--9-| 
A|-11-11-11-11-11-11-11-11--7--7--7--7--7--7--7--7---9--9--9--9--9--9--9--9-| 
E|-9--9--9--9--9--9--9--9----------------------------7--7--7--7--7--7--7--7-| 
  -fiiiiiiiiiiiiiiiiiiiiiiiiiiiiiiiiiiiiiiiiiiiiiiieedd Whatever keeps u  
satis- 
 
   C#			    E			     B 
e|--------------------------------------------------------------------------| 
B|--------------------------------------------------------------------------| 
G|--------------------------9--9--9--9--9--9--9--9--------------------------| 
D|-11-11-11-11-11-11-11-11--9--9--9--9--9--9--9--9---9--9--9--9--9--9--9--9-| 
A|-11-11-11-11-11-11-11-11--7--7--7--7--7--7--7--7---9--9--9--9--9--9--9--9-| 
E|-9--9--9--9--9--9--9--9----------------------------7--7--7--7--7--7--7--7-| 
  -fiiiiiiiiiiiiiiiiiiiiiiiiiiiiiiiiiiiiiiiiiiieedd 
 
C#m		A	E 
C#m		A	E 
 
Verse 2: 
Swimming in confusion 
Swinging from left to right 
Kids are acting up 
But you say they're fine 
 
Bringing home the bacon 
Spending far too much time 
Kids are acting up 
But you say they're fine 
 
CHORUS 
 
Bridge: 
   B 
  Gtr 1. 
e|----------------------------------------------------------------------| 
B|----------------------------------------------9-9-9-7-7-7-7-----------| 
G|-8--8--8--8--8--8--8--8--8--8--8--8--8--8--8--8-8-8-8-8-8-8-9-9-9-8-8-| 
D|-9--9--9--9--9--9--9--9--9--9--9--9--9--9--9--9-9-9-9-9-9-9-9-9-9-9-9-| 
A|-9--9--9--9--9--9--9--9--9--9--9--9--9--9--9--------------------------| 
E|-7--7--7--7--7--7--7--7--7--7--7--7--7--7--7--------------------------| 
|Gtr 2. 
e|----------------------------------------------9-----7-------5-----4---| 
B|----------------------------------------------------------------------| 
G|----------------------------------------------------------------------| 
 
One of the these days i'm gunna catch me and aeroplane 
show me the plan then help me to get away 
show the way and i'll try my best to escape 
show me the way and i'll stay 
 
YEH!! 
 
Chorus: 2X 
 
Whatever keeps u satis- 
   C#			    E			     B 
e|--------------------------------------------------------------------------| 
B|--------------------------------------------------------------------------| 
G|--------------------------9--9--9--9--9--9--9--9--------------------------| 
D|-11-11-11-11-11-11-11-11--9--9--9--9--9--9--9--9---9--9--9--9--9--9--9--9-| 
A|-11-11-11-11-11-11-11-11--7--7--7--7--7--7--7--7---9--9--9--9--9--9--9--9-| 
E|-9--9--9--9--9--9--9--9----------------------------7--7--7--7--7--7--7--7-| 
  -fiiiiiiiiiiiiiiiiiiiiiiiiiiiiiiiiiiiiiiiiiiiiiiieedd Whatever keeps u  
satis- 
 
   C#			    E			     B				D7  
e|--------------------------------------------------------------------------| 
B|--------------------------------------------------------------------------| 
G|--------------------------9--9--9--9--9--9--9--9--------------------------| 
D|-11-11-11-11-11-11-11-11--9--9--9--9--9--9--9--9---9--9--9--9--9--9--9--9-| 
A|-11-11-11-11-11-11-11-11--7--7--7--7--7--7--7--7---9--9--9--9--9--9--9--9-| 
E|-9--9--9--9--9--9--9--9----------------------------7--7--7--7--7--7--7--7-| 
  -fiiiiiiiiiiiiiiiiiiiiiiiiiiiiiiiiiiiiiiiiiiieedd 
  = play last time only 
End: 
 
   B		    E7			 wooo 
e|-7--7---7-7--7----12-12-12-12-12-12-12-----------------| 
B|-7--7---7-7--7----12-12-12-12-12-12-12-----------------| 
G|-8--8---8-8--8----13-13-13-13-13-13-13-----------------| 
D|-9--8---8-8--8----12-12-12-12-12-12-12-----------------| 
A|-9--9---9-9--9----14-14-14-14-14-14-14-----------------|Play X 3 
E|-7--7---7-7--7----12-12-12-12-12-12-12-----------------| 
 
Then: 
   E7  D#7 D7 C#7 C7 B7 
e|-12--11--10--9--8--7------------------| 
B|-12--11--10--9--8--7------------------| 
G|-13--12--11--10-9--8------------------| 
D|-12--11--10--9--8--7------------------| 
A|-14--13--12--11-10-9------------------| 
E|-12--11--10--9--8--7------------------| 
 
 

    	
fixar
fixar inscrever-se

enviado porenviado por: anônimo
cifra enviadaCorrigida por: sem correções
logo top cifrasComente
ico música do artistaMúsicas deste artista
ico curtiuCurtiu?
ico destaqueDestaque
Petaxxon Comunicação Online

Cifras.com.br - Melhor e mais completo site de cifras e tablaturas do Brasil Mais de 1 milhão de acordes de músicas cadastradas desde 2003
As informações contidas no nosso site são colaborações de seus usuários e podem conter erros, sendo assim, não nos responsabilizamos sobre nenhuma destas.

close
menos
mais
close
Cor dos acordes:

Cor da letra:

close
Alinhar acordes a direita Alinhar acordes a esquerda Alinhar acordes em baixo Alinhar acordes no topo
close
  Mostrar todos os acordes Esconder acordes muito fáceis Esconder acordes fáceis Esconder acordes intermediários
redimensionar
glossário