Cifras e Tablaturas
Lilly Wood And The Prick
Cifras Cancelar Versão de Impressão

Lilly Wood And The Prick - Prayer In C

Tom: C

  			


verse 

e|-----5---5-7-8-5---------------------------------------------------------| 
B|-----------------------5---5-6-5-----3---3-5-6-3-----6---6-8-6-----------| 
G|-------------------------------------------------------------------------| 
D|-------------------------------------------------------------------------| 
A|-----------------------3-----------------------------5-------------------| 
E|-----5-------------------------------3-----------------------------------| 



Chorus 
     
     Am     C      G     Dm 
e|---5------3------3------5--------------------------------------------------| 
B|---5------5------3------6--------------------------------------------------| 
G|---5------5------4------7--------------------------------------------------| 
D|---7------5------5------7--------------------------------------------------| 
A|---7------3------5------5--------------------------------------------------| 
E|---5------3------3------5--------------------------------------------------| 
    	
fixar
fixar inscrever-se

enviado porenviado por: bombaXXX
cifra enviadaCorrigida por: sem correções
logo top cifrasComente
ico música do artistaMúsicas deste artista
ico curtiuCurtiu?
ico destaqueDestaque
Petaxxon Comunicação Online

Cifras.com.br - Melhor e mais completo site de cifras e tablaturas do Brasil Mais de 1 milhão de acordes de músicas cadastradas desde 2003
As informações contidas no nosso site são colaborações de seus usuários e podem conter erros, sendo assim, não nos responsabilizamos sobre nenhuma destas.

close
menos
mais
close
Cor dos acordes:

Cor da letra:

close
Alinhar acordes a direita Alinhar acordes a esquerda Alinhar acordes em baixo Alinhar acordes no topo
close
  Mostrar todos os acordes Esconder acordes muito fáceis Esconder acordes fáceis Esconder acordes intermediários
redimensionar
glossário