Cifras e Tablaturas
Lisa

Lisa

Rally Go Round - Tv Size

Cifras Cancelar Versão de Impressão

Lisa - Rally Go Round - Tv Size

Tom:

  			
E|------------------------------------------------------|---------------------------------------------| 
B|-------------7---5------3---4---5---4---3-------------|---------7---5------3---4---5---4---3--------| 
G|-4---4---------------------------------------2--------|-4---4----------------------------------2p0--| 
D|-4---4------------------------------------------------|-4---4---------------------------------------| 
A|-2---2------------------------------------------------|-2---2---------------------------------------| 
E|------------------------------------------------------|---------------------------------------------| 


E|------------------------------------------------------|----------------------------------------------| 
B|-------------7---5------3---4---5---4---3-------------|---------7---5------3-------------------------| 
G|-4---4--------------------------------------2---2---3-|-4---4---------------------4-7-----6-9--------| 
D|-4---4------------------------------------------2---3-|-2---2-----------------5-------7-------9------| 
A|-2---2------------------------------------------0---1-|-4---4----------------------------------------| 
E|------------------------------------------------------|----------------------------------------------| 

verse 1 


E|------------------------------------------------------| 
B|------------------------------------------------------| 
G|------------------------------------------------------| 
D|-----------------------------------------------7---7--| 
A|-19\7------------------------------------------7---7--| 
E|-17\5------------------------------------------5---5--| 

E|------------------------------------------------------|---------------------------------------------| 
B|-------------------------------------------------12---|---------------------------------------------| 
G|---------------------------------------8--9--11-------|-----------------------------------6--4------| 
D|-9----------------------------------9-----------------|-4------------------------------4--------4---| 
A|-9----------------------------------------------------|-4---------------------------4---------------| 
E|-7----------------------------------------------------|-2-------------------------------------------| 

E|------------------------------------------------------|---------------------------------------------| 
B|------------------------------------------------------|---------------------------------------------| 
G|------------------------------------------------------|---------------------------------------------| 
D|-2-----------------------------------------2---2---2--|-4-------------------------------------------| 
A|-2-----------------------------------------2---2---2--|-4-------------------------------------------| 
E|-0-----------------------------------------0---0---0--|-2-------------------------------------------| 

E|-----------------------------------------------------|----------------------------------------------| 
B|-----------------------------------------------------|----------------------------------------------| 
G|-----------------------------------------------------|----------------------------------------------| 
D|-5--------------------------7------------------------|-9--------------------9-----------------------| 
A|-5--------------------------7------------------------|-9--------------------9-----------------------| 
E|-3--3pm--3--3--3--3--3--3---5--5pm--5--5--5--5--5--5-|-7---2pm---5pm---6pm--7-----------------------| 


Pre-Chorus 

E|----------------------------------------------------|-11--9-----11--9-----11-9-------------------------| 
B|----------------------------------------11--14--11--|--------9-----------------9-----------------------| 
G|-----------------------------13---11----------------|------------------11--------11--9pm99-------------| 
D|-------------8----11---13---------------------------|--------------------------------------11pm1111----| 
A|--7----11-------------------------------------------|------------------------------------------------9-| 
E|----------------------------------------------------|--------------------------------------------------| 



E|----2/14--| 
B|----------| 
G|----------| 
D|----------| 
A|----------| 
E|----------| 


Chorus 

E|----------------------------------------------|-------------------------------------------------------| 
B|-------14--16-14-------------14----16-14------|-------14--16-14-------14--16-14-----------------------| 
G|--13----------------13---13-----13------------|--13--------------14--------------10---11----13--------| 
D|----------------------------------------------|-------------------------------------------------------| 
A|----------------------------------------------|-------------------------------------------------------| 
E|----------------------------------------------|-------------------------------------------------------| 

E|----------------------------------------------|--------------------------------| 
B|-------14--16-14-------------14----16-14------|--------------------------------| 
G|--13----------------14---14----14-------------|--------------------------------| 
D|----------------------------------------------|------------------13---15-15----| 
A|----------------------------------------------|----11---8---11-----------------| 
E|----------------------------------------------|--------------------------------| 

E|----------------------------------------------|-------------------------------------------------------| 
B|-------14--16-14-------------14----16-14------|-------14--16-14-------14--16-14-----------------------| 
G|--13----------------13---13-----13------------|--13--------------14--------------10---11----13--------| 
D|----------------------------------------------|-------------------------------------------------------| 
A|----------------------------------------------|-------------------------------------------------------| 
E|----------------------------------------------|-------------------------------------------------------| 

E|----------------------------------------------|--------------------------------| 
B|-------14--16-14------------14-16-14-16-14----|-----------------------14-------| 
G|--13------------------------------------------|--13----------------13----------| 
D|-------------------------16-------------------|--------16----15-16-------------| 
A|----------------------------------------------|--------------------------------| 
E|----------------------------------------------|--------------------------------| 

 

E|----------------------------------------------|-----------------| 
B|----------------------------------------------|-----------------| 
G|-------------------6----2--2-4---4---6--------|--2---4---4------| 
D|----4----8----6----6----2--2-4---2---6--------|--2---4---4------| 
A|----4----8----6----4----0--0-2---2---4--------|--0---2---2(x8)--| 
E|----2----6----4-------------------------------|-----------------| 


E|------------------------------------------------------|---------------------------------------------| 
B|-------------9---7------5---6---7---6---5-------------|---------9---7----5--------------------------| 
G|-6---6---------------------------------------4--------|-6---6--------------------4-7-----6-9--------| 
D|-6---6------------------------------------------------|-6---6----------------5-------7---------9----| 
A|-4---4------------------------------------------------|-4---4---------------------------------------| 
E|------------------------------------------------------|---------------------------------------------| 
    	
fixar
fixar inscrever-se

enviado porenviado por: renejunior
cifra enviadaCorrigida por: sem correções
logo top cifrasComente
ico música do artistaMúsicas deste artista
ico curtiuCurtiu?
ico destaqueDestaque
Petaxxon Comunicação Online

Cifras.com.br - Melhor e mais completo site de cifras e tablaturas do Brasil Mais de 1 milhão de acordes de músicas cadastradas desde 2003
As informações contidas no nosso site são colaborações de seus usuários e podem conter erros, sendo assim, não nos responsabilizamos sobre nenhuma destas.

close
menos
mais
close
Cor dos acordes:

Cor da letra:

close
Alinhar acordes a direita Alinhar acordes a esquerda Alinhar acordes em baixo Alinhar acordes no topo
close
  Mostrar todos os acordes Esconder acordes muito fáceis Esconder acordes fáceis Esconder acordes intermediários
redimensionar
glossário