Cifras e Tablaturas
Cifras Cancelar Versão de Impressão
cifras

Little Clubthing - Sadness

fixar na tela  
Exibindo: vídeo-aula ver clipes redimensionar

Tom:

Em

ver outros tons
  
This is in order to replicate the background melody. 

Intro 
e|--------------------------------------| 
B|--------------------------------------| 
G|--------------------------------------| 
D|--------------------------------------| 
A|--Har15-------------------------------| 
E|--------------------------------------| 

00:10 
Em-G 
e|-----------0--------------------------| 
B|-----------0--------------------------| 
G|-----------0--------------------------| 
D|-----------2--------------------------| 
A|-------2---2--------------------------| 
E|---3-------3--------------------------| 

00:21 
G6* 
e|-----------0--------------------------| 
B|-----------3--------------------------| 
G|-----------0--------------------------| 
D|-----------0--------------------------| 
A|-------2---2--------------------------| 
E|---3-------3--------------------------| 

00:32 
Em-G 
e|-----------0--------------------------| 
B|-----------0--------------------------| 
G|-----------0--------------------------| 
D|-----------2--------------------------| 
A|-------2---2--------------------------| 
E|---3-------3--------------------------| 

00:42 
Am-G 
e|-----------0--------------------------| 
B|-----------1--------------------------| 
G|-----------2--------------------------| 
D|-----------2--------------------------| 
A|-------0---0--------------------------| 
E|---3-------3--------------------------| 

00:53 
F/C 
e|-----------x--------------------------| 
B|-----------1--------------------------| 
G|-----------2--------------------------| 
D|-----------3--------------------------| 
A|---0---3---3--------------------------| 
E|-----------x--------------------------| 

01:02 
G6 
e|--------------0-----------------------| 
B|--------------3-----------------------| 
G|--------------0-----------------------| 
D|---0----------0-----------------------| 
A|----------3---2-----------------------| 
E|--------------3-----------------------| 

01:12 
F/C 
e|-----------x--------------------------| 
B|-----------1--------------------------| 
G|-----------2--------------------------| 
D|-----------3--------------------------| 
A|---0---3---3--------------------------| 
E|-----------x--------------------------| 

01:18 
G6 
e|--------------0-----------------------| 
B|--------------3-----------------------| 
G|--------------0-----------------------| 
D|---0----------0-----------------------| 
A|----------3---2-----------------------| 
E|--------------3-----------------------| 

01:31 
Am 
e|-----------0--------------------------| 
B|-----------1--------------------------| 
G|-----------2--------------------------| 
D|-------2---2--------------------------| 
A|---0-------0--------------------------| 
E|-----------x--------------------------| 

01:35 
G6* 
e|-----------0--------------------------| 
B|-----------3--------------------------| 
G|-----------0--------------------------| 
D|-----------0--------------------------| 
A|-------2---2--------------------------| 
E|---3-------3--------------------------| 

01:46 
Am 
e|-----------0--------------------------| 
B|-----------1--------------------------| 
G|-----------2--------------------------| 
D|-------2---2--------------------------| 
A|---0-------0--------------------------| 
E|-----------x--------------------------| 

01:52 
G6* 
e|-----------0--------------------------| 
B|-----------3--------------------------| 
G|-----------0--------------------------| 
D|-----------0--------------------------| 
A|-------2---2--------------------------| 
E|---3-------3--------------------------| 

02:03 
F/C 
e|--------x-----------------------------| 
B|--------1-----------------------------| 
G|--------2-----------------------------| 
D|--------3-----------------------------| 
A|---0----3-----------------------------| 
E|--------x-----------------------------| 

02:09 
G6 
e|--------0-----------------------------| 
B|--------3-----------------------------| 
G|--------0-----------------------------| 
D|--------0-----------------------------| 
A|---0----2-----------------------------| 
E|--------3-----------------------------| 

02:16 
Am* 
e|--------x-----------------------------| 
B|--------x-----------------------------| 
G|--------2-----------------------------| 
D|--------2-----------------------------| 
A|---0----0-----------------------------| 
E|--------x-----------------------------| 

Em-G    G6*     Am-G    F/C     G6      Am*  or Am* 

E|0     E|0     E|0     E|x     E|0     E|x     E|x 
B|0     B|3     B|1     B|1     B|0     B|x     B|x 
G|0     G|0     G|2     G|2     G|0     G|2     G|2 
D|2     D|0     D|2     D|3     D|0     D|2     D|2 
A|2     A|2     A|0     A|3     A|2     A|0     A|0 
E|3     E|3     E|3     E|x     E|3     E|5     E|x 

Har = Harmonic 
  

cifra enviadasem correções
enviado porenviada por:robepoiel
top 5 | little clubthing
top rock'n roll
Outras músicas do artista letras do(a) Little Clubthing
Top cifras »Top artistas »
Petaxxon Comunicação Online
Cifras.com.br - Melhor e mais completo site de cifras e tablaturas do Brasil
Mais de 1 milhão de acordes de músicas cadastradas desde 2003
As informações contidas no nosso site são colaborações de seus usuários e podem conter erros, sendo assim, não nos responsabilizamos sobre nenhuma destas.
close
menos
mais
close
Cor dos acordes:

Cor da letra:

 

save
close
close
 
redimensionar