Cifras e Tablaturas
Little Texas

Little Texas

Peacful Easy Feeling

Cifras Cancelar Versão de Impressão
cifras

Little Texas - Peacful Easy Feeling

fixar na tela  
Exibindo: vídeo-aula ver clipes redimensionar
  
 Intro 
  Moderately Fast Q=140 
    E                 Esus4            E 
 4/4 
  Gtr III 
    Q  Q   E  E E E   E E E E +E Q      E 
    |  |   |  | | |   | | | |  | |      | 
    /  /   /  / / /   / / / /  / /      / 

   Gtr I 
   a Q  Q  +Q.     E   E E Q    E E  E   E 
e|------0--(0)-------|-------------------0--| 
B|-4s5-------------5h|=7---7------7-(7)-(7)s| 
G|-------------------|----------------------| 
D|-5s6---------------|---7------7----7--(7)s| 
A|-------------------|----------------------| 
E|-------------------|----------------------| 


                      Esus4                E 
  Q   Q   E E E E      E  E  E  E +E  Q    E 
  |   |   | | | |      |  |  |  |  |  |    | 
  /   /   / / / /      /  /  /  /  /  /    / 

   E E E E E E E E   a  E  E  E  E  E  E  E E 
e|---------0-----0-|----------------0-------0---| 
B|-9---9-----9-----|---------10-------10--------| 
G|-----------------|----------------------------| 
D|-9-9---9-----9---|-9s11-11----11-------11-----| 
A|-----------------|----------------------------| 
E|-----------------|----------------------------| 


                              Esus4 
   Q      Q     Q      Q       E     E E  E  +E    Q     E 
   |      |     |      |       |     | |  |   |    |     | 
   /      /     /      /       /     / /  /   /    /     / 

    Q      E  E  E  +E  E  E    Q       E  E   E   +E  E  E 
e|---------0------------0----|----------0--------------0----| 
B|-12b14========12r(12)------|-10b12==========10r=(10)------| 
G|---------------------------|------------------------------| 
D|-12--------12-----------12-|-11---------11-(11)--------11-| 
A|---------------------------|------------------------------| 
E|---------------------------|------------------------------| 


  E                           Esus4 
   Q      Q     E   E  E  E    E     E E  E  +E    Q    E 
   |      |     |   |  |  |    |     | |  |   |    |    | 
   /      /     /   /  /  /    /     / /  /   /    /    / 

    Q      E  E  E  +E  E  E    Q       E  E   E   +E  Q 
e|---------0------------0----|----------0--------------0----|| 
B|-12b14========12r(12)------|-10b12==========10r=(10)------|| 
G|---------------------------|------------------------------|| 
D|-12--------12-----------12-|-11---------11-(11)-----------|| 
A|---------------------------|------------------------------|| 
E|---------------------------|------------------------------|| 


 1st Verse 
  E              A             A11 E           A                        A11 
  Q  Q  E E Q    Q  E E +Q   E E   Q  Q  E E E E   Q       E  E E  E  E E 
  |  |  | | |    |  | |  |   | |   |  |  | | | |   |       |  | |  |  | | 
  /  /  / / /    /  / /  /   / /   /  /  / / / /   /       /  / /  /  / / 

                                                    PM 
   H     Q   Q    Q  Q    E E Q     Q  Q  Q   E E   E E    +E  E E +Q. 
e|-------0------|---------0-------|-------0-----0-|-------------------------| 
B|--------------|----2------2-----|----0----------|---0b2==(0)---0r(0)------| 
G|--------------|-------------2---|-----------1---|------------2------------| 
D|--------------|-----------------|---------------|-------------------------| 
A|--------------|-0---------------|---------------|-0-----------------------| 
E|--------------|-----------------|---------------|-------------------------| 


  E                A                 B7                        Badd4 A11 
  Q  Q   E E Q     Q  E E +E E Q     Q  Q  E E E E    Q    Q   E E E E 
  |  |   | | |     |  | |  | | |     |  |  | | | |    |    |   | | | | 
  /  /   / / /     /  / /  / / /     /  /  / / / /    /    /   / / / / 

   Q  E E E E E E   Q  E E  Q   E E   H     E E E E   +E  E E E E E E E 
e|--------0-----0-|-----------------|---------------|--------------------| 
B|----0-----0-----|----2----2-------|---------------|--------------------| 
G|----------------|----2----2-------|-------4-----4-|-(4)---4-----2------| 
D|-2----2-----2---|-----------------|-------4-2-4-4-|-(4)---4-----2------| 
A|----------------|-0----0----------|---------------|-----2---2h4---4p2--| 
E|-4------4-------|-------------4h5-|---------------|--------------------| 


  E             A                   E                A 
  Q  Q  Q  Q    E E E E +E E  Q     Q   Q  E E Q      E  E E E +E E E E 
  |  |  |  |    | | | |  | |  |     |   |  | | |      |  | | |  | | | | 
  /  /  /  /    / / / /  / /  /     /   /  / / /      /  / / /  / / / / 

   Q  Q  Q  Q    Q   Q    E E  Q     E E Q  Q   E E   +E  E E E  E E E E 
e|-------0-----|----------0--------|----------------|---------------------| 
B|----0--------|-----2-------------|--------5-----5-|-(5)-----5--------5--| 
G|----------1--|------------2p(0)--|-----4----------|-----4h6----6p4------| 
D|-------------|-------------------|-4h6------------|----------------7----| 
A|-------------|-0-----------------|----------------|---------------------| 
E|-0-----------|-------------------|----------------|---------------------| 


  E                A              D7sus4 B7 
  Q   Q  E E Q     Q  Q  E E Q    Q  Q   E E E E   Q   Q  E E E E 
  |   |  | | |     |  |  | | |    |  |   | | | |   |   |  | | | | 
  /   /  / / /     /  /  / / /    /  /   / / / /   /   /  / / / / 

   E E Q  Q   E E   H     H        Q  E E E E E E   E E Q  Q   E E 
e|--------4-------|-------5------|----------------|-----------------|| 
B|--------------5-|--------------|------4-5-----5p|=4------4--------|| 
G|-----4------4---|--------------|----------4-----|-----4--------4--|| 
D|-4h6------------|--------------|----4-------4---|---4--------4----|| 
A|----------------|--------------|----------------|-----------------|| 
E|----------------|--------------|----------------|-----------------|| 


 1st Chorus 
  A                                E                             A11 
  Q  Q  E E E E   +Q  Q  E E E E   Q  Q  E E E E   Q   Q   E E E E 
  |  |  | | | |    |  |  | | | |   |  |  | | | |   |   |   | | | | 
  /  /  / / / /    /  /  / / / /   /  /  / / / /   /   /   / / / / 

   Q  Q  Q   Q      Q  Q  Q   Q     Q  Q  E E E E   E E E E E E E E 
e|-------5-------|----------------|-------0-----0-|-------0-------0--| 
B|----2------2---|--------2-------|----0----0-----|-----0-----0-0-0--| 
G|---------------|-----2--2---2---|-----------1---|-1-1-----1--------| 
D|---------------|-----2----------|---------------|------------------| 
A|-0-------------|--0-------------|---------------|------------------| 
E|---------------|----------------|-0-------------|------------------| 


  A                                    F#m7add4          B7           A11 
  Q  Q   E E E E   +E E Q  Q   Q       Q   E E E E E E   Q  E E E E E E 
  |  |   | | | |    | | |  |   |       |   | | | | | |   |  | | | | | | 
  /  /   / / / /    / / /  /   /       /   / / / / / /   /  / / / / / / 

   Q  E E E E E E    E E Q  E E S S E   E E E E E E Q     Q  E E E E E E 
e|--------5-------|-------------------|-----------------|----------------| 
B|----2-----2-----|-------------------|-----------------|------7-----4---| 
G|------2-----2---|------2------------|-------------4---|----4---4-------| 
D|----------------|----2----4-2-4p2---|-----4---4h6-----|-4--------4---4-| 
A|-0------------3h|==4--------------4-|-4s6---6---6-----|----------------| 
E|----------------|-------------------|-----------------|----------------| 
  

cifra enviadasem correções
enviado porenviada por:brunblazkowski
top 5 | little texas
top country
Outras músicas do artista letras do(a) Little Texas
Top cifras »Top artistas »
Petaxxon Comunicação Online
Cifras.com.br - Melhor e mais completo site de cifras e tablaturas do Brasil
Mais de 1 milhão de acordes de músicas cadastradas desde 2003
As informações contidas no nosso site são colaborações de seus usuários e podem conter erros, sendo assim, não nos responsabilizamos sobre nenhuma destas.
close
menos
mais
close
Cor dos acordes:

Cor da letra:

 

save
close
close
 
redimensionar