Cifras e Tablaturas
Lloyd Cole

Lloyd Cole

I Didnt Know That You Cared

Cifras Cancelar Versão de Impressão
cifras

Lloyd Cole - I Didnt Know That You Cared

fixar na tela  
Exibindo: vídeo-aula ver clipes redimensionar
  
Intro  
e|------------------------| 
B|------------------------| 
G|2/44\22-2-22-2-2-22-22--| x2 
D|4/66\44-4-44-4-4-44-44--| 
A|4/66\44-4-44-4-4-44-44--| 
E|------------------------| 

e|--------------------------------------------------------|| 
B|--------------------------------------------------------|| 
G|2/44\22--2-22--2-22-22--2/44--11-11-1111-11-1111-1111---|| <-- 11 NOT 1 
D|4/66\44--4-44--4-44-44--4/66--9--9--9-9--9--9-9--9-9----||  
A|4/66\44--4-44--4-44-44--4/66--11-11-1111-11-1111-1111---|| <-- 11 NOT 1 
E|--------------------------------------------------------|| 
PLAY LAST NOTE LOUD. 

verse 1   
e|------------------------| 
B|------------------------| 
G|2/44\22-2-22-2-2-22-22--| x2 
D|4/66\44-4-44-4-4-44-44--| 
A|4/66\44-4-44-4-4-44-44--| 
E|------------------------| 

e|---------------------| 
B|---------------------| 
G|2/44\1-1-11-1-11-111-| 
D|4/66\2-2-22-2-22-222-| 
A|4/66\2-2-22-2-22-222-| 
E|---------------------| 

e|------------------------| 
B|------------------------| 
G|2/44\22-2-22-2-2-22-22--| 
D|4/66\44-4-44-4-4-44-44--| 
A|4/66\44-4-44-4-4-44-44--| 
E|------------------------| 

e|--------------------------------------------------------------| 
B|--------------------------------------------------------------| 
G|2/44\22-2-22-2-22-22-2-2\1-1-11-1-11-1-1/2-2-22-2-22-2-2------| 
D|4/66\44-4-44-4-44-44-4-4\2-2-22-2-22-2-2/4-2-22-2-22-2-2------| 
A|4/66\44-4-44-4-44-44-4-4\2-2-22-2-22-2-2/4-4-44-4-44-4-4------| 
E|--------------------------------------------------------------| 
  
Chorus   
e|4-4-44-4-44-44-4-------------------------------------------------| 
B|5-5-55-5-55-55-5-(5-5-55-555)------------------------------------| 
G|6-6-66-6-66-66-6--6-6-66-666-1-1-11-1-11-1-2-2-22-2-22-2-2-------| 
D|6-6-66-6-66-66-6--7-7-77-777-2-2-22-2-22-2-4-4-44-4-44-4-4-------| 
A|4-4-44-4-44-44-4--7-7-77-777-2-2-22-2-22-2-4-4-44-4-44-4-4-------| 
E|4-4-44-4-44-44-4-------------------------------------------------| 

e|4-4-44-4-44-44-4-------------------------------------------------------|| 
B|5-5-55-5-55-55-5-(5-5-55-555-5)----------------------------------------|| 
G|6-6-66-6-66-66-6--6-6-66-666-6-4-2-2-22-2-22-22/44-1-1-11-1-11-11------|| 
D|6-6-66-6-66-66-6--7-7-77-777-7-6-4-4-44-4-44-44/66-2-2-22-2-22-22------|| 
A|4-4-44-4-44-44-4--7-7-77-777-7-6-4-4-44-4-44-44/66-2-2-22-2-22-22------|| 
E|4-4-44-4-44-44-4-------------------------------------------------------|| 
PLAY LAST NOTE LOUD. 


verse 2   
e|------------------------| 
B|------------------------| 
G|2/44\22-2-22-2-2-22-22--| x2 
D|4/66\44-4-44-4-4-44-44--| 
A|4/66\44-4-44-4-4-44-44--| 
E|------------------------| 

e|---------------------| 
B|---------------------| 
G|2/44\1-1-11-1-11-111-| 
D|4/66\2-2-22-2-22-222-| 
A|4/66\2-2-22-2-22-222-| 
E|---------------------| 

e|------------------------| 
B|------------------------| 
G|2/44\22-2-22-2-2-22-22--| 
D|4/66\44-4-44-4-4-44-44--| 
A|4/66\44-4-44-4-4-44-44--| 
E|------------------------| 

e|--------------------------------------------------------------| 
B|--------------------------------------------------------------| 
G|2/44\22-2-22-2-22-22-2-2\1-1-11-1-11-1-1/2-2-22-2-22-2-2------| 
D|4/66\44-4-44-4-44-44-4-4\2-2-22-2-22-2-2/4-2-22-2-22-2-2------| 
A|4/66\44-4-44-4-44-44-4-4\2-2-22-2-22-2-2/4-4-44-4-44-4-4------| 
E|--------------------------------------------------------------| 

THE SECOND Chorus CHANGES SLIGHTLY. 

Chorus 2  
e|4-4-44-4-44-44-4-------------------------------------------------| 
B|5-5-55-5-55-55-5-(5-5-55-555)------------------------------------| 
G|6-6-66-6-66-66-6--6-6-66-666-1-1-11-1-11-1-2-2-22-2-22-2-2-------| 
D|6-6-66-6-66-66-6--7-7-77-777-2-2-22-2-22-2-4-4-44-4-44-4-4-------| 
A|4-4-44-4-44-44-4--7-7-77-777-2-2-22-2-22-2-4-4-44-4-44-4-4-------| 
E|4-4-44-4-44-44-4-------------------------------------------------| 

e|4-4-44-4-44-44-4----------------------------------------------------------------------| 
B|5-5-55-5-55-55-5------------(5-5-55-555)----------------------------------------------| 
G|6-6-66-6-66-66-6--4-4-44-444-6-6-66-666-4-4-44-444-2-2-22-222-4-4-44-444-6-6-66-666---| 
D|6-6-66-6-66-66-6--6-6-66-666-7-7-77-777-6-6-66-666-4-4-44-444-6-6-66-666-7-7-77-777---| 
A|4-4-44-4-44-44-4--6-6-66-666-7-7-77-777-6-6-66-666-4-4-44-444-6-6-66-666-7-7-77-777---| 
E|4-4-44-4-44-44-4----------------------------------------------------------------------| 

Bridge  
e|---------------------------|| 
B|---------------------------|| 
G|9-9-99-999-6-6-66-6666-----|| 
D|7-7-77-777-4-4-44-4444-----|| 
A|9-9-99-999-6-6-66-6666-----|| 
E|---------------------------|| 
PLAY LAST NOTE LOUD. 

Solo  
e|-----------------------------------------------------|| 
B|-----------------------------------------------------|| 
G|89-9-99-8-8-89-9-99-8-8-11-11-1111-11-1111-1111------|| <-- 11 NOT 1 
D|99-9-99-9-9-99-9-99-9-9-9--9--9-9--9--9-9--9-9-------|| 
A|00-0-00-0-0-00-0-00-0-0-11-11-1111-11-1111-1111------|| <-- 11 NOT 1 
E|------------------------0--0--0-0--0--0-0--0-0-------|| 
PLAY LAST NOTE LOUD. 

Outro  
e|------------------------| 
B|------------------------| 
G|2/44\22-2-22-2-2-22-22--| x2 
D|4/66\44-4-44-4-4-44-44--| 
A|4/66\44-4-44-4-4-44-44--| 
E|------------------------| 

e|--------------| 
B|--------------| 
G|2/44\1~~------| 
D|4/66\2~~------| 
A|4/66\2~~------| 
E|--------------| 

************************************ 
| ||  Pauses 
| ()  optional note 
| ~   let ring 
| /   Slide up 
| \   Slide down 

************************************ 
  

top 5 | lloyd cole
top rock alternativo
Outras músicas do artista letras do(a) Lloyd Cole
Top cifras »Top artistas »
Petaxxon Comunicação Online
Cifras.com.br - Melhor e mais completo site de cifras e tablaturas do Brasil
Mais de 1 milhão de acordes de músicas cadastradas desde 2003
As informações contidas no nosso site são colaborações de seus usuários e podem conter erros, sendo assim, não nos responsabilizamos sobre nenhuma destas.
close
menos
mais
close
Cor dos acordes:

Cor da letra:

 

save
close
close
 
redimensionar