Cifras e Tablaturas
Loretta Lynn

Loretta Lynn

You Aint Woman Enough

Cifras Cancelar Versão de Impressão
cifras

Loretta Lynn - You Aint Woman Enough

fixar na tela  
Exibindo: vídeo-aula ver clipes redimensionar

Tom:

  
Guitar                                                            
e|------------------|------------------|------------------| 
B|------------------|------------------|------------------| 
G|------------------|------------------|------------------| 
D|------------------|------------------|------------------| 
A|------------------|------------------|------------------| 
E|------------------|------------------|------------------| 
                                                                      
e|-------------8---------|------------------------|---------------------| 
B|-----------------------|------6-----------------|---4-----------------| 
G|--------5----8---------|------7-----------------|---3-----------------| 
D|-----------------------|------8-----------6-----|---5-----------------| 
A|-----------------------|------11----------------|---------------------| 
E|-----4-----------------|----------------6-------|---------------------| 
                                                     
e|-----------15----11----------|----------------------| 
B|-----------------------------|---11-----------------| 
G|-----------------------12----|---12-----------------| 
D|-----------------------------|---13-----------------| 
A|-----------------------------|---10-----------------| 
E|-----------------------------|----------------------| 
                                                                   
e|-----------------------6----|-------------------|-------------------| 
B|------------------8---------|--4----------------|-------------------| 
G|---------------8------------|--5----------------|-------------------| 
D|----------------------------|--6----------------|-------------------| 
A|---------10-----------------|-------------------|-------------------| 
E|----------------------------|-------------------|-------------------| 
                                                                      
e|--6----------------|----------------------6------|--------------------| 
B|--6----------------|-----------------6-----------|--------------------| 
G|--7----------------|--------------7------------3-|--------------------| 
D|--6----------------|---------6-----------------6-|--------------------| 
A|-------------------|---------------------------8-|--------------------| 
E|-------------------|-----------------------------|--------------------| 
                                                                   
e|-------------3-----------|------------------|-------------------11-| 
B|-----------------------4-|------------------|-------------------13-| 
G|--------0----3---------3-|------------------|-------------------13-| 
D|-----------------------5-|------------------|-------------------10-| 
A|-------------------------|------------------|----------------------| 
E|-------------------------|------------------|----------------------| 
                                                                        
e|------------------|---------------4--8----11----|---11-----------------| 
B|------------------|----------1------------------|---13-----------------| 
G|------------------|-----------------------------|---13-----------------| 
D|------------------|-----------------------------|---10-----------------| 
A|------------------|-----------------------------|----------------------| 
E|------------------|-----------------------------|----------------------| 
                                                                                
e|----------------------|----------------------|----------11--------------------| 
B|----------------------|----------------------|----------11--13---11--------6--| 
G|----------------------|---12-----------------|-----------------------------7--| 
D|---8------------------|---13-----------------|------13---------------------8--| 
A|---11-----------------|---13-----------------|-----------------------------11-| 
E|---13-----------------|---11-----------------|--------------------------------| 
                                                          
e|------------------|-------------------3-|------------------| 
B|------------------|-------------------4-|------------------| 
G|------------------|-------------------3-|------------------| 
D|------------------|---------------------|------------------| 
A|------------------|---------------------|------------------| 
E|------------------|---------------------|------------------| 
                                                               
e|-------------------1-|------------------|-------------------6-| 
B|-------------------1-|------------------|-------------------6-| 
G|-------------------2-|------------------|-------------------7-| 
D|---------------------|------------------|-------------------6-| 
A|---------------------|------------------|---------------------| 
E|---------------------|------------------|---------------------| 
                                                                   
e|------------------|------------------1----6----|---------------------| 
B|------------------|---------------3------------|---8-----------------| 
G|------------------|----------1-----------------|---8-----------------| 
D|------------------|----------------------------|---8-----------------| 
A|------------------|----------------------------|---6-----------------| 
E|------------------|----------------------------|---------------------| 
                                                                          
e|---------11--8---------------|------------------|---------4--1------------| 
B|---------11------11----------|------------------|---------4------4--------| 
G|------8--------------------5-|------------------|------1------------------| 
D|---------------------------6-|------------------|-------------------------| 
A|---------------------------6-|------------------|-------------------------| 
E|---------------------------4-|------------------|-------------------------| 
                                                             
e|--4----------------|--6-----------------|--------------------| 
B|--4----------------|--9-----------------|--------------------| 
G|--5----------------|--10----------------|--8-----------------| 
D|-------------------|--12----------------|--8-----------------| 
A|-------------------|--------------------|--10----------------| 
E|-------------------|--------------------|--------------------| 
                                                                      
e|-------------------|-------------------|----------15----11----------| 
B|-------------------|--4----------------|----------------------------| 
G|-------------------|--3----------------|----------------------12----| 
D|-------------------|--5----------------|----------------------------| 
A|-------------------|-------------------|----------------------------| 
E|-------------------|-------------------|----------------------------| 
                                                                          
e|-------8-----------------|--------------------------|--6----------------| 
B|-------9-----------------|--------------------------|--6----------------| 
G|-------8-----------------|---------------------5----|--7----------------| 
D|-------10---------10-----|--------------------------|--6----------------| 
A|-------------------------|--------------------------|-------------------| 
E|--4----------------------|------------------4-------|-------------------| 
                                                                        
e|----------------------6----|-------------1---------|-------------------| 
B|-----------------6---------|-------------3---------|--4----------------| 
G|--------------7------------|-------------1---------|--3----------------| 
D|---------6-----------------|--------3--------------|--5----------------| 
A|---------------------------|-----------------------|-------------------| 
E|---------------------------|-----6-------------------------------------| 
  

top 5 | loretta lynn
top country
Outras músicas do artista letras do(a) Loretta Lynn
Top cifras »Top artistas »
Petaxxon Comunicação Online
Cifras.com.br - Melhor e mais completo site de cifras e tablaturas do Brasil
Mais de 1 milhão de acordes de músicas cadastradas desde 2003
As informações contidas no nosso site são colaborações de seus usuários e podem conter erros, sendo assim, não nos responsabilizamos sobre nenhuma destas.
close
menos
mais
close
Cor dos acordes:

Cor da letra:

 

save
close
close
 
redimensionar