Cifras e Tablaturas
Los Campesinos!

Los Campesinos!

The Trains Dont Run Its Christmas Day

Cifras Cancelar Versão de Impressão
cifras

Los Campesinos! - The Trains Dont Run Its Christmas Day

fixar na tela  
Exibindo: vídeo-aula ver clipes redimensionar

Tom:

  

Intro/verse 1 
e|---------------------------------------------------------------| 
B|---------------------------------------------------------------| 
G|---------------------------------------------------------------| 
D|------0---0-------0-----0-------0---0-------0-----0------------| (x4) 
A|--5-----5---5/9-9---9-9---9\7-----7---7\2-2---2-2---2----------| 
E|---------------------------------------------------------------| 
Before the ice gritters, but after the drunks 
I tiptoe down the stairs to fill the stockings up 

Chorus 
e|---------------------------------------------------------------| 
B|---------------------------------------------------------------| 
G|---------------------------------------------------------------| 
D|------0---0-------0-----0-------0---0-------0-----0------------| 
A|--2-----2---2/5-5---5-5---5/9-----9---9\7-7---7-7---7----------| 
E|---------------------------------------------------------------| 

e|---------------------------------------------------------------| 
B|---------------------------------------------------------------| 
G|---------------------------------------------------------------| 
D|------0---0-------0-----0-------0---0-------0------------------| 
A|--2-----2---2/5-5---5-5---5/9-----9---9\7-7---7-7-9-7-2-5------| 
E|---------------------------------------------------------------| 

Believe me when I say 
“I wouldn’t have it any other way” 
White snow, may turn to grey 
But Christmas sky is blue, if us is me and you 

verse 2 
e|---------------------------------------------------------------| 
B|---------------------------------------------------------------| 
G|---------------------------------------------------------------| 
D|------0---0-------0-----0-------0---0-------0-----0------------| (x2) 
A|--5-----5---5/9-9---9-9---9\7-----7---7\2-2---2-2---2----------| 
E|---------------------------------------------------------------| 

Unwrapping your gifts down a Motorola on pre-pay 
Because the trains don’t run, not on Christmas day 

Chorus 
e|---------------------------------------------------------------| 
B|---------------------------------------------------------------| 
G|---------------------------------------------------------------| 
D|------0---0-------0-----0-------0---0-------0-----0------------| 
A|--2-----2---2/5-5---5-5---5/9-----9---9\7-7---7-7---7----------| 
E|---------------------------------------------------------------| 

e|---------------------------------------------------------------| 
B|---------------------------------------------------------------| 
G|---------------------------------------------------------------| 
D|------0---0-------0-----0-------0---0-------0------------------| 
A|--2-----2---2/5-5---5-5---5/9-----9---9\7-7---7-7-9-7-2-5------| 
E|---------------------------------------------------------------| 

Believe me when I say 
“I wouldn’t have it any other way” 
White snow, may turn to grey 
But Christmas sky is blue, if us is me and you 

Bridge 
e|---------------------------------------------------------------| 
B|---------------------------------------------------------------| 
G|---------------------------------------------------------------| 
D|---------------------------------------------------------------| 
A|--5----9----7----2-----5----9----7----2------------------------| 
E|---------------------------------------------------------------| 

We sit in paper hats, our stomachs gorged 
We vow to get drunk before we get bored 

Chorus 
e|---------------------------------------------------------------| 
B|---------------------------------------------------------------| 
G|---------------------------------------------------------------| 
D|------0---0-------0-----0-------0---0-------0-----0------------| 
A|--2-----2---2/5-5---5-5---5/9-----9---9\7-7---7-7---7----------| 
E|---------------------------------------------------------------| 

e|---------------------------------------------------------------| 
B|---------------------------------------------------------------| 
G|---------------------------------------------------------------| 
D|------0---0-------0-----0-------0---0-------0------------------| 
A|--2-----2---2/5-5---5-5---5/9-----9---9\7-7---7-7-9-7-2-5------| 
E|---------------------------------------------------------------| 

Believe me when I say 
“I wouldn’t have it any other way” 
White snow, may turn to grey 
But Christmas sky is blue, if us is me and you 



************************************ 

| /   Slide up 
| \   Slide down 

************************************ 
  

top 5 | los campesinos!
top rock'n roll
Outras músicas do artista letras do(a) Los Campesinos!
Top cifras »Top artistas »
Petaxxon Comunicação Online
Cifras.com.br - Melhor e mais completo site de cifras e tablaturas do Brasil
Mais de 1 milhão de acordes de músicas cadastradas desde 2003
As informações contidas no nosso site são colaborações de seus usuários e podem conter erros, sendo assim, não nos responsabilizamos sobre nenhuma destas.
close
menos
mais
close
Cor dos acordes:

Cor da letra:

 

save
close
close
 
redimensionar