Cifras e Tablaturas
Los Chalchaleros

Los Chalchaleros

El Árbol

Cifras Cancelar Versão de Impressão

Los Chalchaleros - El Árbol

Tom: Am

  			Intro 
e||---7--7----7--8---12--8---7--12---8---7---8------|| 
B||---8--8----8--10--10--10--8--10---10--8---10-----|| 
G||-------------------------------------------------|| 
D||-------------------------------------------------|| 
A||-------------------------------------------------|| 
E||-------------------------------------------------|| 

e||-7--5--3--2---------------0----------------------|| 
B||-8--7--5--4---5--4--2--4--0----------------------|| 
G||--------------5--4--2--4-------------------------|| 
D||-------------------------------------------------|| 
A||-------------------------------------------------|| 
E||-------------------------------------------------|| 

e||---------------------------------0---------------|| 
B||--------------------------------0----------------|| 
G||-------------------------------0-----------------|| 
D||------------------------------2------------------|| 
A||-2-3-5-2-3-2-0h2h0--2----------------------------|| 
E||-------------------3-3-2-8-7-0-------------------|| 

El árbol que tu olvidaste… 

e||-------------------------------------------------|| 
B||-------------------------------------------------|| 
G||-------------------------------------------------|| 
D||-------------------------------------------------|| 
A||------0-2~7-9-10---------------------------------|| 
E||--0-3--------------------------------------------|| 

Siempre se acuerda de ti… 

e||--2-3-5-5-3-2------------------------------------|| 
B||--4-5-7-7-5-4------------------------------------|| 
G||-------------------------------------------------|| 
D||-------------------------------------------------|| 
A||-------------2-3-2-------------------------------|| 
E||-------------------------------------------------|| 

Y le pregunta a la noche… 

e||-------------------------------------------------|| 
B||-------------------------------------------------|| 
G||-------------------------------------------------|| 
D||-------------------------------------------------|| 
A||--2-1-0------------------------------------------|| 
E||--------2-3-4-5----------------------------------|| 

Si serás, o no, feliz… 


e||----8----7--5-3-2-5-3----------------------------|| 
B||--10-----8--7-5-4-7-5----------------------------|| 
G||-------------------------------------------------|| 
D||-------------------------------------------------|| 
A||-------------------------------------------------|| 
E||-------------------------------------------------|| 

El arroyo me ha contado… 

e||-------------------------------------------------|| 
B||------3-2-1--------------------------------------|| 
G||----0-------2-3-4--------------------------------|| 
D||---2---------------------------------------------|| 
A||-------------------------------------------------|| 
E||-0-----------------------------------------------|| 






Que el árbol suele decir 

e||-------------------------------------------------|| 
B||-------------------------------------------------|| 
G||-------------------------------------------------|| 
D||-------------------------------------------------|| 
A||-2h3-2-------------------------------------------|| 
E||-------------------------------------------------|| 


           Am          Em                  | 
Quien se aleja junta queja,                | 
      C*        B7         Em              |       Estribillo 
en vez de quedarse aquí.                   | *Repite con G en vez de C 



E7                   Am 
Al que se va por el mundo 
D7                G 
suele sucederle así, 
Am                   Em 
que el corazón va con uno 
  C     Am    G     B7 
y uno tiene que sufrir. 


     Am                Em           | 
Y el árbol, que tú olvidaste,       | 
  C*          B7        Em           |         Estribillo 
siempre se acuerda de tí.           |   *Repite con G en vez de C 




Repite intro con la segunda parte 

Arbolito de mi tierra, 
yo te quisiera decir, 
que lo que a muchos les pasa, 
también me ha pasado a mí. 

No quiero que me lo digas, 
pero lo tengo que oir: 

           Am            Em     | 
quien se aleja junta queja,     |            Estribillo 
    C*         B7      Em       |  *Repite con G en vez de C 
en vez de quedarse aquí.        | 

E7                   Am 
Al que se va por el mundo 
D7                G 
suele sucederle así, 
Am                    Em 
que el corazón va con uno 
  C     Am    G     B7 
y uno tiene que sufrir. 

Am                      Em          | 
Y el árbol, que tú olvidaste,       |          Estribillo 
C*            B7        Em          |  *Repite con G en vez de C 
siempre se acuerda de ti            | 
    	
fixar
fixar inscrever-se

enviado porenviado por: PAULLET3
cifra enviadaCorrigida por: sem correções
logo top cifrasComente
ico música do artistaMúsicas deste artista
ico curtiuCurtiu?
ico destaqueDestaque
Petaxxon Comunicação Online

Cifras.com.br - Melhor e mais completo site de cifras e tablaturas do Brasil Mais de 1 milhão de acordes de músicas cadastradas desde 2003
As informações contidas no nosso site são colaborações de seus usuários e podem conter erros, sendo assim, não nos responsabilizamos sobre nenhuma destas.

close
menos
mais
close
Cor dos acordes:

Cor da letra:

close
Alinhar acordes a direita Alinhar acordes a esquerda Alinhar acordes em baixo Alinhar acordes no topo
close
  Mostrar todos os acordes Esconder acordes muito fáceis Esconder acordes fáceis Esconder acordes intermediários
redimensionar
glossário