Cifras e Tablaturas
Los Panchos

Los Panchos

Alma, Corazon Y Vida

Cifras Cancelar Versão de Impressão

Los Panchos - Alma, Corazon Y Vida

Tom:

  			E--10-10----10-------13-10-10--8-8---8------12-8-8---- 
B--10----10-------10-------10--8---8------8------8---- 
G--10----------10----------10--9-------9---------9---- 


E--6-6---6-----10-10-10/12-10-9---------------------- 
B--6---6-----6------------------11-10-8-------------- 
G--7-------7-----------------------------10-9-0------ 


E--6-6---6-----6-----6------5-5---5-----5------5----- 
B--8---8-----8-----8---8----6---6-----6------6---6--- 
G--7-------7-----7-------7--7-------7------7-------7- 


E--9--9---10--10---12--12---13--12---10--10---9--10-- 
B--8--8---9----9---11--11---12--11---10--10---8--10-- 
G--9--9---10--10---12--12---13--12---10--10---9--10-- 
    	
fixar
fixar inscrever-se

enviado porenviado por: xiniitah
cifra enviadaCorrigida por: sem correções
logo top cifrasComente
ico música do artistaMúsicas deste artista
ico curtiuCurtiu?
ico destaqueDestaque
Petaxxon Comunicação Online

Cifras.com.br - Melhor e mais completo site de cifras e tablaturas do Brasil Mais de 1 milhão de acordes de músicas cadastradas desde 2003
As informações contidas no nosso site são colaborações de seus usuários e podem conter erros, sendo assim, não nos responsabilizamos sobre nenhuma destas.

close
menos
mais
close
Cor dos acordes:

Cor da letra:

close
Alinhar acordes a direita Alinhar acordes a esquerda Alinhar acordes em baixo Alinhar acordes no topo
close
  Mostrar todos os acordes Esconder acordes muito fáceis Esconder acordes fáceis Esconder acordes intermediários
redimensionar
glossário