Cifras e Tablaturas
Los Traseros Empapados

Los Traseros Empapados

No Me Haras Sufrir

Cifras Cancelar Versão de Impressão

Los Traseros Empapados - No Me Haras Sufrir

Tom: G

  			    G                 D                 Em                   Bm  

1|-------3-------|---------2--------|-------0-----------|-------2-----------|E 
2|-------3-------|---------3--------|-------0-----------|-------3-----------|B 
3|----0-----0---|------2-----2----|----0----0--------|----4----4--------|G 
4|----------------|---0--------------|--------------------|--------------------|d 
5|----------------|-------------------|--------------------|--2----------------|a 
6|-3-------------|-------------------|-0-----------------|--------------------|e 

       C                  G                 F                      D 

1|-------0--------|----------3--------|-----------1-------|---------3h-2------|E 
2|-------1--------|----------3--------|-----------1-------|-------3------3-----|B 
3|----0----0-----|--------0---0-----|--------2-----2---|-----2---------2----|G 
4|-----------------|--------------------|--------------------|--0------------------|d 
5|--3-------------|--------------------|--------------------|----------------------|a 
6|-----------------|-0--3-------------|--0--1------------|----------------------|e 


El mismo ritmo del intro es en 
Toda la canción hasta el coro 


G                 D 
Yo se bien que te fuiste 
Em                           Bm 
Yo se tambien que te fuiste feliz 
C                 G 
Con ese infeliz recuerda 
         D 
Que yo te ame 
G                       D 
No olvides todo lo que te quise 
Em                        Bm 
Recuerda que yo te seguiré esperando 
C             G 
Como la primera vez 
F 
Pero estado pensando 

        D  

1|--------3h-2-------0h 1----2------| 
2|------3------3-----------------3------| 
3|----2----------2---------------2------| 
4|--0-----------------------------0------| 
5|-----------------------------------------| 
6|-----------------------------------------| 

No me mereces por eso: 




CORO: 

G                D 
No me harás sufrir 
Em            Bm 
Pues feliz seré sin ti 
     C                G 
Hoy triste no me siento 
      F                   D 
Pues se que te ame hasta el ultimo momento 
G              D 
Así que ya vete 
Em               Bm    C    G 
Pues no me harás sufriiii-iiiiiir 
F         D 
no, no, no. 

(seguimos con los mismos acordes como el intro) 

G                 D 
A otra chica conseguiré 
Em             Bm 
Mejor que tú trataré 
C                G 
Tú nunca me quisiste 
F                D 
Por eso se que feliz te fuiste 
G            D  
No me importa vete con el 
Em                    Bm     C   G    
No me importa a otra mas amareee 

   F 
Pero estado pensando 

           
       D  

1|--------3h-2-------0h 1----2------| 
2|------3------3-----------------3------| 
3|----2----------2---------------2------| 
4|--0-----------------------------0------| 
5|-----------------------------------------| 
6|-----------------------------------------| 

No me mereces por eso: 



CORO 


No me harás sufrir... (fade out) 




    	
fixar
fixar inscrever-se

enviado porenviado por: system_10
cifra enviadaCorrigida por: sem correções
logo top cifrasComente
ico música do artistaMúsicas deste artista
ico curtiuCurtiu?
ico destaqueDestaque
Petaxxon Comunicação Online

Cifras.com.br - Melhor e mais completo site de cifras e tablaturas do Brasil Mais de 1 milhão de acordes de músicas cadastradas desde 2003
As informações contidas no nosso site são colaborações de seus usuários e podem conter erros, sendo assim, não nos responsabilizamos sobre nenhuma destas.

close
menos
mais
close
Cor dos acordes:

Cor da letra:

close
Alinhar acordes a direita Alinhar acordes a esquerda Alinhar acordes em baixo Alinhar acordes no topo
close
  Mostrar todos os acordes Esconder acordes muito fáceis Esconder acordes fáceis Esconder acordes intermediários
redimensionar
glossário