Cifras e Tablaturas
LosPetitFellas

LosPetitFellas

Rock N Love

Cifras Cancelar Versão de Impressão
cifras

LosPetitFellas - Rock N Love

fixar na tela  
Exibindo: vídeo-aula ver clipes redimensionar
  
Intro 

e |----------------|----------------------------| 
B |----------------|----------------------------| 
G |--------3--5----|----------------------------| 
D |-----5----------|--------3-------------------| 
A |----------------|-----------5h-3-------------| 
E |----------------|-----------------5----------| 


Main Riff 
    Gm               Gm    Gm                            Gm 
e |----------------|----------------------------|      |----------------|----------------------------| 
B |----------------|----------------------------|      |----------------|----------------------------| 
G |----------------|----------------------------|      |----------------|----------------------------| 
D |--5--5--5--5----|--5-----5-----------3h-5----|      |--5--5--5--5----|--------3h-5--------3h-5----| 
A |--5--5--5--5----|--5-----5-----3h-5----------|      |--5--5--5--5----|--3h-5--------3h-5----------| 
E |--3--3--3--3----|--3-----3-------------------| (x3) |--3--3--3--3----|----------------------------| 


    Gm               Gm    Gm                            Gm 
e |----------------|----------------------------|      |----------------|----------------------------| 
B |----------------|----------------------------|      |----------------|----------------------------| 
G |----------------|----------------------------|      |----------------|----------------------------| 
D |--5--5--5--5----|--5-----5-----------3h-5----|      |--5--5--5--5----|--------3h-5--------3h-5----| 
A |--5--5--5--5----|--5-----5-----3h-5----------|      |--5--5--5--5----|--3h-5--------3h-5----------| 
E |--3--3--3--3----|--3-----3-------------------| (x3) |--3--3--3--3----|----------------------------| 


verse 1 

This plays along through all the first verse 

e |----------------|----------------|----------------|----------------| 
B |----------------|----------------|----------------|----------------| 
G |----------------|----------------|----------------|----------------| 
D |----------------|----------------|----------------|----------------| 
A |----------------|----------------|----------------|----------------| 
E |--3--3--3--3----|--3--3--3--3----|--3--3--3--3----|--3--3--3--3----|    
   "Okay, ya conocí esos amores..." 


Chorus 

    Gm  C   Bb       C     Gm                C# C       C# C                     Eb       Gm 
e |---------------|-----------------|      |--------------------------|----------------------------| 
B |---------------|-----------------|      |--------------------------|----------------------------| 
G |-----5--5/3----|--5--5-----------|      |--6/5--------6/5----------|--6--5-----8----------------| 
D |--5--5--5/3----|--5--5---5-------|      |--6/5--------6/5----------|--6--5-----8--------5-------| 
A |--5--3--3/1----|--3--3---5-------|      |--4/3--------4/3----------|--4--3-----6--------5-------| 
E |--3------------|---------3-------| (x3) |--------------------------|--------------------3-------| 

    Gm  C   Bb       C     Gm                C#| C       C# C                     Eb       Gm 
e |---------------|-----------------|      |--------------------------|----------------------------| 
B |---------------|-----------------|      |--------------------------|----------------------------| 
G |-----5--5/3----|--5--5-----------|      |--6/5--------6/5----------|--6--5-----8----------------| 
D |--5--5--5/3----|--5--5---5-------|      |--6/5--------6/5----------|--6--5-----8--------5-------| 
A |--5--3--3/1----|--3--3---5-------|      |--4/3--------4/3----------|--4--3-----6--------5-------| 
E |--3------------|---------3-------| (x3) |--------------------------|--------------------3-------| 


verse 2 

After the Chorus the guitar remains in silence until 1:27 


e |----------------------------|-------------------|--------------------|-----------------| 
B |-------16b18----------------|--------16b18------|-----15b16----------|---------14b15---| 
G |----------------------------|-------------------|--------------------|-----------------| 
D |----------------------------|-------------------|--------------------|-----------------| 
A |----------------------------|-------------------|--------------------|-----------------| 
E |----------------------------|-------------------|--------------------|-----------------| 
     "...y quiero ser tu droga, tuc doc de anatomía, tus noches hardcore, tus buenos días" 

e |----------------------------|-------------------|--------------------|-----------------| 
B |-------16b18----------------|--------16b18------|-----15b16----------|---------14b15---| 
G |----------------------------|-------------------|--------------------|-----------------| 
D |----------------------------|-------------------|--------------------|-----------------| 
A |----------------------------|-------------------|--------------------|-----------------| 
E |----------------------------|-------------------|--------------------|-----------------| 
   "...no quiero ser melancolía ni enojo ni ser tu amigo porque no puedo verte con esos ojos" 


Chorus 

    Gm  C   Bb       C     Gm                C# C       C# C                     Eb       Gm 
e |---------------|-----------------|      |--------------------------|----------------------------| 
B |---------------|-----------------|      |--------------------------|----------------------------| 
G |-----5--5/3----|--5--5-----------|      |--6/5--------6/5----------|--6--5-----8----------------| 
D |--5--5--5/3----|--5--5---5-------|      |--6/5--------6/5----------|--6--5-----8--------5-------| 
A |--5--3--3/1----|--3--3---5-------|      |--4/3--------4/3----------|--4--3-----6--------5-------| 
E |--3------------|---------3-------| (x3) |--------------------------|--------------------3-------| 

    Gm  C   Bb       C     Gm                C#| C       C# C                     Eb       Gm 
e |---------------|-----------------|      |--------------------------|----------------------------| 
B |---------------|-----------------|      |--------------------------|----------------------------| 
G |-----5--5/3----|--5--5-----------|      |--6/5--------6/5----------|--6--5-----8----------------| 
D |--5--5--5/3----|--5--5---5-------|      |--6/5--------6/5----------|--6--5-----8--------5-------| 
A |--5--3--3/1----|--3--3---5-------|      |--4/3--------4/3----------|--4--3-----6--------5-------| 
E |--3------------|---------3-------| (x3) |--------------------------|--------------------3-------| 


verse 3 

e |----------------|----------------|----------------|----------------| 
B |----------------|----------------|----------------|----------------| 
G |----------------|----------------|----------------|----------------| 
D |----------------|----------------|----------------|----------------| 
A |----------------|----------------|----------------|----------------| 
E |--3--3--3--3----|--3--3--3--3----|--3--3--3--3----|--3--3--3--3----|  
   "Dale color a mis días en negro y blanco..." 

e |----------------------------|-------------------|--------------------|-----------------------| 
B |-------16b18----------------|--------16b18------|-----15b16----------|---------------14b15---| 
G |----------------------------|-------------------|--------------------|-----------------------| 
D |----------------------------|-------------------|--------------------|-----------------------| 
A |----------------------------|-------------------|--------------------|-----------------------| 
E |----------------------------|-------------------|--------------------|-----------------------| 
     "Dime porque lloras, se mi dinamita. Quien inspira lo que escribo y mi actriz porno favorita" 

e |----------------------------|-------------------|--------------------|-----------------------| 
B |-------16b18----------------|--------16b18------|-----15b16----------|---------------14b15---| 
G |----------------------------|-------------------|--------------------|-----------------------| 
D |----------------------------|-------------------|--------------------|-----------------------| 
A |----------------------------|-------------------|--------------------|-----------------------| 
E |----------------------------|-------------------|--------------------|-----------------------| 
     "Un rock and love que no miente, uno sin reclamos"       .   .   .            "sin tragos"  


Chorus 

    Gm  C   Bb       C     Gm                C# C       C# C                     Eb       Gm 
e |---------------|-----------------|      |--------------------------|----------------------------| 
B |---------------|-----------------|      |--------------------------|----------------------------| 
G |-----5--5/3----|--5--5-----------|      |--6/5--------6/5----------|--6--5-----8----------------| 
D |--5--5--5/3----|--5--5---5-------|      |--6/5--------6/5----------|--6--5-----8--------5-------| 
A |--5--3--3/1----|--3--3---5-------|      |--4/3--------4/3----------|--4--3-----6--------5-------| 
E |--3------------|---------3-------| (x3) |--------------------------|--------------------3-------| 

    Gm  C   Bb       C     Gm                C#| C       C# C                     Eb       Gm 
e |---------------|-----------------|      |--------------------------|----------------------------| 
B |---------------|-----------------|      |--------------------------|----------------------------| 
G |-----5--5/3----|--5--5-----------|      |--6/5--------6/5----------|--6--5-----8----------------| 
D |--5--5--5/3----|--5--5---5-------|      |--6/5--------6/5----------|--6--5-----8--------5-------| 
A |--5--3--3/1----|--3--3---5-------|      |--4/3--------4/3----------|--4--3-----6--------5-------| 
E |--3------------|---------3-------| (x3) |--------------------------|--------------------3-------| 


verse 1 

e |----------------|----------------|----------------|----------------| 
B |----------------|----------------|----------------|----------------| 
G |----------------|----------------|----------------|----------------| 
D |----------------|----------------|----------------|----------------| 
A |----------------|----------------|----------------|----------------| 
E |--3--3--3--3----|--3--3--3--3----|--3--3--3--3----|--3--3--3--3----|    
   "Ya conocí esos amores..." 


Outro 

    Gm  C   Bb       C     Gm                C# C       C# C                     Eb       Gm 
e |---------------|-----------------|      |--------------------------|----------------------------| 
B |---------------|-----------------|      |--------------------------|----------------------------| 
G |-----5--5/3----|--5--5-----------|      |--6/5--------6/5----------|--6--5-----8----------------| 
D |--5--5--5/3----|--5--5---5-------|      |--6/5--------6/5----------|--6--5-----8--------5-------| 
A |--5--3--3/1----|--3--3---5-------|      |--4/3--------4/3----------|--4--3-----6--------5-------| 
E |--3------------|---------3-------| (x3) |--------------------------|--------------------3-------| 

    Gm  C   Bb       C     Gm                C#| C       C# C                     Eb       Gm 
e |---------------|-----------------|      |--------------------------|----------------------------| 
B |---------------|-----------------|      |--------------------------|----------------------------| 
G |-----5--5/3----|--5--5-----------|      |--6/5--------6/5----------|--6--5-----8----------------| 
D |--5--5--5/3----|--5--5---5-------|      |--6/5--------6/5----------|--6--5-----8--------5-------| 
A |--5--3--3/1----|--3--3---5-------|      |--4/3--------4/3----------|--4--3-----6--------5-------| 
E |--3------------|---------3-------| (x3) |--------------------------|--------------------3-------| 


    Gm 
e |---------| 
B |---------| 
G |---------| 
D |--5~~----| 
A |--5~~----| 
E |--3~~----| 



************************************ 


| h   Hammer-on 
| p   Pull-off 
| b   Bend 
| /   Slide up 
| \   Slide down 
| ~   Vibrato 


************************************ 
  

cifra enviadasem correções
enviado porenviada por:jessgomes
top 5 | lospetitfellas
top rock'n roll
Outras músicas do artista letras do(a) LosPetitFellas
Top cifras »Top artistas »
Petaxxon Comunicação Online
Cifras.com.br - Melhor e mais completo site de cifras e tablaturas do Brasil
Mais de 1 milhão de acordes de músicas cadastradas desde 2003
As informações contidas no nosso site são colaborações de seus usuários e podem conter erros, sendo assim, não nos responsabilizamos sobre nenhuma destas.
close
menos
mais
close
Cor dos acordes:

Cor da letra:

 

save
close
close
 
redimensionar