Cifras e Tablaturas
Lou Reed

Lou Reed

Turn To Me

Cifras Cancelar Versão de Impressão
cifras

Lou Reed - Turn To Me

fixar na tela  
Exibindo: vídeo-aula ver clipes redimensionar
  
Main riff 
         D          D              G             D  
e|----------------------------------------------------| 
B|---3---x--3-x-3---x-3---3-x--0---x----0-x--3---x----| 
G|---2---x--2-x-2---x-2-4-2-x--0---x----0-x--2---x----| 
D|---0---x--0-x-0---x-0-0-0-x--0---x----0-x--0---x----| 
A|------------------------------------2---------------| 
E|----------------------------------------------------| 

   D           D                   G          G  / A       
e|------------------------------------------------------------| 
B|---3--x-3---x-3--3----3--3----3--x--0---x--0-x-0--x-3---x---| 
G|---2--x-2---x-2--2--4-2--2----2--x--0---x--0-x-0--x-2---x---| 
D|---0--x-0---x-0--0--0-0--0-4v-0--x--0---x--0-x-0--x-2---x---| 
A|------------------------------------------------------------| 
E|------------------------------------------------------------| 

   D          D              G              D  
e|-----------------------------------------------------------| 
B|---3---x--3-x-3---x-3---3----0---x---0--0--x-3---x---3-----| 
G|---2---x--2-x-2---x-2-4-2----0---x---0--0--x-2---x-4-2-----| 
D|---0---x--0-x-0---x-0-0-0----0---x---0--0--x-0---x-0-0-----| 
A|---------------------------2-------------------------------| 
E|---------------------------3-------------------------------| 

    G          A              D        D  
e|------------------------------------------------| 
B|---0---x---0-x-3---x-2----2---3---x---3-x-3-----| 
G|---0---x---0-x-2---x-2----2---2---x---2-x-2-----| 
D|---0---x---0-x-2---x-2----2---0---x---0-x-0-----| 
A|---------------------0-3v-0---------------------| 
E|------------------------------------------------| 


************************************ 
| x  Dead note 
************************************ 
  

cifra enviadasem correções
enviado porenviada por:gustsilva
top 5 | lou reed
top pop music
Outras músicas do artista letras do(a) Lou Reed
Top cifras »Top artistas »
Petaxxon Comunicação Online
Cifras.com.br - Melhor e mais completo site de cifras e tablaturas do Brasil
Mais de 1 milhão de acordes de músicas cadastradas desde 2003
As informações contidas no nosso site são colaborações de seus usuários e podem conter erros, sendo assim, não nos responsabilizamos sobre nenhuma destas.
close
menos
mais
close
Cor dos acordes:

Cor da letra:

 

save
close
close
 
redimensionar