Cifras e Tablaturas
Luan e Vanessa

Luan e Vanessa

Quatro Semanas de Amor

Cifras Cancelar Versão de Impressão Print

Luan e Vanessa - Quatro Semanas de Amor

Tom: Em

  • 0:00 / 0:00
  			Tom: Em 
 
#Riff Intro							        
E-----12-10-8-7-7h8----13b14r13--10-12----------------------- 
B--12-------------------------------------------------------- 
G------------------------------------------------------------ 
D------------------------------------------------------------ 
A------------------------------------------------------------ 
E------------------------------------------------------------ 
 
#Solo 
E---------------------------------------------------------------- 
B------------12-12-10~--8p7h8------/13-13-10-13/15-15--10-10h12-- 
G--9-9-12-12------------------9~--------------------------------- 
D---------------------------------------------------------------- 
A---------------------------------------------------------------- 
E---------------------------------------------------------------- 
 
E--------------------------------------12-14-15-15b17--14h15p14-------- 
B--15/17-15-13----13-13h15p13-12-10-12--------------------------15-17-- 
G--------------16------------------------------------------------------ 
D---------------------------------------------------------------------- 
A---------------------------------------------------------------------- 
E---------------------------------------------------------------------- 
 
#Vide cifra versão dois# 

    	

enviado porenviado por: rordaque
cifra enviadaCorrigida por: sem correções
logo top cifrasComente
ico música do artistaMúsicas deste artista
ico curtiuCurtiu?
ico destaqueDestaque
Petaxxon Comunicação Online

Cifras.com.br - Melhor e mais completo site de cifras e tablaturas do Brasil Mais de 1 milhão de acordes de músicas cadastradas desde 2003
As informações contidas no nosso site são colaborações de seus usuários e podem conter erros, sendo assim, não nos responsabilizamos sobre nenhuma destas.

close
menos
mais
close
Cor dos acordes:

Cor da letra:

close
Alinhar acordes a direita Alinhar acordes a esquerda Alinhar acordes em baixo Alinhar acordes no topo
close
  Mostrar todos os acordes Esconder acordes muito fáceis Esconder acordes fáceis Esconder acordes intermediários
redimensionar
glossário