Cifras e Tablaturas
Lucas Rangel

Lucas Rangel

Dancinha Do Tchau

Cifras Cancelar Versão de Impressão Print

Lucas Rangel - Dancinha Do Tchau

Tom: Ab

  • 0:00 / 0:00
  			 


E|----------------------------------------| 
B|-------3---------3---------3---------3--| 
G|-----0---------0---------0---------0----| 
D|---4---------4---------4---------4------| (x3) 
A|-2---------0----------------------------| 
E|--------------------3---------3---------|

E|------------------------------------| 
B|------------------------------------| 
G|------------------------------------| 
D|-----------4---2--0--0-0----0-4-----| 
A|-2---2-4-5---4------------4-----4-0-| 
E|---2--------------------------------| 

E|13-11-10-------11-10-8-------------8-10-8~------8-10-8~- 
B|--------13-9~----------11-8~--8-11---------8-11---------| 
G|--------------------------------------------------------| 
D|--------------------------------------------------------| (2x) 
A|--------------------------------------------------------| 
E|--------------------------------------------------------| 
    	

enviado porenviado por: adalgomes
cifra enviadaCorrigida por: sem correções
logo top cifrasComente
ico música do artistaMúsicas deste artista
ico curtiuCurtiu?
ico destaqueDestaque
Petaxxon Comunicação Online

Cifras.com.br - Melhor e mais completo site de cifras e tablaturas do Brasil Mais de 1 milhão de acordes de músicas cadastradas desde 2003
As informações contidas no nosso site são colaborações de seus usuários e podem conter erros, sendo assim, não nos responsabilizamos sobre nenhuma destas.

close
menos
mais
close
Cor dos acordes:

Cor da letra:

close
Alinhar acordes a direita Alinhar acordes a esquerda Alinhar acordes em baixo Alinhar acordes no topo
close
  Mostrar todos os acordes Esconder acordes muito fáceis Esconder acordes fáceis Esconder acordes intermediários
redimensionar
glossário