Cifras e Tablaturas
Luciano Magno

Luciano Magno

Rock Frevo

Cifras Cancelar Versão de Impressão
cifras

Luciano Magno - Rock Frevo

fixar na tela  
Exibindo: vídeo-aula ver clipes redimensionar
  
E|-----------------------------------------------------| 
B|-----------------------------------------------------| 
G|-------3-4-5-5/6~--4---------4-----/6--4---------4-/7| 
D|-7-6-7---------------6-3~--6---6---------6-3---6-----| 
A|-----------------------------------------------------| 
E|-----------------------------------------------------| 

E|---------------------------------9------9-12-10------| 
B|---------------7-----7-10---7-10---7-10---------10---| 
G|-----6-9-6-7-9---7-9------9------------------------11| 
D|-7-9-------------------------------------------------| 
A|-----------------------------------------------------| 
E|-----------------------------------------------------| 

E|-----------------------------------------------------| 
B|-----------------------------------------------------| 
G|-9---------------------------------------------------| 
D|---12-11-12-9----------------------------------------| 
A|--------------12-11~---------------------------------| 
E|-----------------------------------------------------| 

E|-----------------------------------------------------| 
B|------------------------------------------12-------12| 
G|-------------------11------11-13----11-13----11-13---| 
D|------9-12----9-12----9-12-------12------------------| 
A|-9h11------11----------------------------------------| 
E|-----------------------------------------------------| 

E|-14p12-----------------------------------------------| 
B|-------15-14-12--------------------------------------| 
G|----------------14-13-11-----------------------------| 
D|-------------------------14-12-11~-------------------| 
A|-----------------------------------------------------| 
E|-----------------------------------------------------| 

E|--------------------------------------------------7--| 
B|-----------------------------------------9-12---9----| 
G|-------------------------------9-13----9------9------| 
D|-------------------11-14----11------11---------------| 
A|-12-11-12-14-11-12-------12--------------------------| 
E|-----------------------------------------------------| 

E|-12-10-9---------------------------10----------------| 
B|---------12-10-9------------11/12------11\10-8~------| 
G|-----------------11-10-9~----------------------------| 
D|-----------------------------------------------------| 
A|-----------------------------------------------------| 
E|-----------------------------------------------------| 

E|---------------10------------------------------------| 
B|----------/12------11\10-8~--------------------------| 
G|-9p7---7----------------------9p7---6~---------------| 
D|-----9----------------------------9------------------| 
A|-----------------------------------------------------| 
E|-----------------------------------------------------| 

E|------------------------------9-12~--14--------------| 
B|---------------------------10------------------------| 
G|--------------9-11-11p9-11---------------------------| 
D|-------7-9-11----------------------------------------| 
A|-9p7-9-----------------------------------------------| 
E|-----------------------------------------------------| 

E|-8/9---------8--8p7-------------8--7h8p7------7--9b10| 
B|------10------------10------10-------------8---------| 
G|---------11------------10~---------------------------| 
D|-----------------------------------------------------| 
A|-----------------------------------------------------| 
E|-----------------------------------------------------| 

E|-9--7---7---------------7----------------------------| 
B|-------10b12r----10b12----10-7-----------------------| 
G|-------------------------------9-7-----9p7-----------| 
D|-----------------------------------9-7------9~-------| 
A|-----------------------------------------------------| 
E|-----------------------------------------------------| 

E|-----------------------------------------------------| 
B|-----------------------------------------------------| 
G|---4-6~--6p4----------4---6-5-4--------------4---/7--| 
D|-7-----------6--3~--6---6-------7-6-4-3---6----------| 
A|-----------------------------------------------------| 
E|-----------------------------------------------------| 

E|---------------------------------9------9-12-10------| 
B|---------------7-----7-10---7-10---7-10---------10---| 
G|-----6-9-6-7-9---7-9------9------------------------11| 
D|-7-9-------------------------------------------------| 
A|-----------------------------------------------------| 
E|-----------------------------------------------------| 

E|-----------------------------------------------------| 
B|-----------------------------------------------------| 
G|-9---------------------------------------------------| 
D|---12-11-12-9----------------------------------------| 
A|--------------12-11~---------------------------------| 
E|-----------------------------------------------------| 

E|-----------------------------------------------------| 
B|------------------------------------------12-------12| 
G|-------------------11------11-13----11-13----11-13---| 
D|------9-12----9-12----9-12-------12------------------| 
A|-9h11------11----------------------------------------| 
E|-----------------------------------------------------| 

E|-14p12-----------------------------------------------| 
B|-------15-14-12--------------------------------------| 
G|----------------14-13-11-----------------------------| 
D|-------------------------14-12-11~-------------------| 
A|-----------------------------------------------------| 
E|-----------------------------------------------------| 

E|--------------------------------------------------7--| 
B|-----------------------------------------9-12---9----| 
G|-------------------------------9-13----9------9------| 
D|-------------------11-14----11------11---------------| 
A|-12-11-12-14-11-12-------12--------------------------| 
E|-----------------------------------------------------| 

E|-12-10-9---------------------------10----------------| 
B|---------12-10-9------------11/12------11\10-8~------| 
G|-----------------11-10-9~----------------------------| 
D|-----------------------------------------------------| 
A|-----------------------------------------------------| 
E|-----------------------------------------------------| 

E|---------------10------------------------------------| 
B|----------/12------11\10-8~--------------------------| 
G|-9p7---7----------------------9p7---6~---------------| 
D|-----9----------------------------9------------------| 
A|-----------------------------------------------------| 
E|-----------------------------------------------------| 

E|------------------------------9-12~--14--------------| 
B|---------------------------10------------------------| 
G|--------------9-11-11p9-11---------------------------| 
D|-------7-9-11----------------------------------------| 
A|-9p7-9-----------------------------------------------| 
E|-----------------------------------------------------| 

E|-8/9---------8--8p7-------------8--7h8p7------7--9b10| 
B|------10------------10------10-------------8---------| 
G|---------11------------10~---------------------------| 
D|-----------------------------------------------------| 
A|-----------------------------------------------------| 
E|-----------------------------------------------------| 

E|-9--7---7----------7--------7-------7-------7--------| 
B|-------10b12r~----10b12----10b12---10b12---10b12~r\--| 
G|-----------------------------------------------------| 
D|-----------------------------------------------------| 
A|-----------------------------------------------------| 
E|-----------------------------------------------------| 

Parte C 

E|-9-7-5-9-7-5-7--9-7-5-7-5----------------------------| 
B|--------------------------7-5------------------------| 
G|-----------------------------------------------------| 
D|-----------------------------------------------------| 
A|-----------------------------------------------------| 
E|-----------------------------------------------------| 

E|-9-7-5-9-7-5-7--5-7-5--------------------------------| 
B|----------------------7-6-5--------------------------| 
G|-----------------------------------------------------| 
D|-----------------------------------------------------| 
A|-----------------------------------------------------| 
E|-----------------------------------------------------| 

E|-7-5-3-7-5-3-5--7-5-3-5-3----------------------------| 
B|--------------------------5-3------------------------| 
G|-----------------------------------------------------| 
D|-----------------------------------------------------| 
A|-----------------------------------------------------| 
E|-----------------------------------------------------| 

E|-7-5-3-7-5-3-5--3-5-3--------------------------------| 
B|----------------------5-4-3--------------------------| 
G|-----------------------------------------------------| 
D|-----------------------------------------------------| 
A|-----------------------------------------------------| 
E|-----------------------------------------------------| 

E|-9-7-5-9-7-5-7--9-7-5-7-5----------------------------| 
B|--------------------------7-5------------------------| 
G|-----------------------------------------------------| 
D|-----------------------------------------------------| 
A|-----------------------------------------------------| 
E|-----------------------------------------------------| 

E|-9-7-5-9-7-5-7--5-7-5--------------------------------| 
B|----------------------7-6-5--------------------------| 
G|-----------------------------------------------------| 
D|-----------------------------------------------------| 
A|-----------------------------------------------------| 
E|-----------------------------------------------------| 

E|-7-5-3-7-5-3-5--7-5-3-5-3----------------------------| 
B|--------------------------5-3------------------------| 
G|-----------------------------------------------------| 
D|-----------------------------------------------------| 
A|-----------------------------------------------------| 
E|-----------------------------------------------------| 

E|-7-5-3-7-5-3-5--3-5-3--------------------------------| 
B|----------------------5-4-3--------------------------| 
G|----------------------------5\--2~-------------------| 
D|-----------------------------------------------------| 
A|-----------------------------------------------------| 
E|-----------------------------------------------------| 

E|-----------------------------------------------------| 
B|--------------------------5b~\-----------------------| 
G|-2---5---7b9---b9r7p5-----5b~\-----------------------| 
D|----------------------7~-----------------------------| 
A|-----------------------------------------------------| 
E|-----------------------------------------------------| 


Final 

E|-9-7-5-9-7-5-7--9-7-5-7-5----------------------------| 
B|--------------------------7-5------------------------| 
G|-----------------------------------------------------| 
D|-----------------------------------------------------| 
A|-----------------------------------------------------| 
E|-----------------------------------------------------| 

E|-9-7-5-9-7-5-7--5-7-5--------------------------------| 
B|----------------------7-6-5--------------------------| 
G|-----------------------------------------------------| 
D|-----------------------------------------------------| 
A|-----------------------------------------------------| 
E|-----------------------------------------------------| 

E|-7-5-3-7-5-3-5--7-5-3-5-3----------------------------| 
B|--------------------------5-3------------------------| 
G|-----------------------------------------------------| 
D|-----------------------------------------------------| 
A|-----------------------------------------------------| 
E|-----------------------------------------------------| 

E|-7-5-3-7-5-3-5--3-5-3--------------------------------| 
B|----------------------5-4-3--------------------------| 
G|----------------------------5\--2~-------------------| 
D|-----------------------------------------------------| 
A|-----------------------------------------------------| 
E|-----------------------------------------------------| 

E|------------------------------12---------------------| 
B|------------7--------8--10----12b14~-----------------| 
G|----5-------7----7-9---------------------------------| 
D|-5-------7-------------------------------------------| 
A|-----------------------------------------------------| 
E|-----------------------------------------------------| 
  

cifra enviadasem correções
enviado porenviada por:gustsilva
top 5 | luciano magno
top rock'n roll
Outras músicas do artista letras do(a) Luciano Magno
Top cifras »Top artistas »
Petaxxon Comunicação Online
Cifras.com.br - Melhor e mais completo site de cifras e tablaturas do Brasil
Mais de 1 milhão de acordes de músicas cadastradas desde 2003
As informações contidas no nosso site são colaborações de seus usuários e podem conter erros, sendo assim, não nos responsabilizamos sobre nenhuma destas.
close
menos
mais
close
Cor dos acordes:

Cor da letra:

 

save
close
close
 
redimensionar