Cifras e Tablaturas
Luíz Gonzaga

Luíz Gonzaga

Asa Branca (Viola Caipira) Tablatura

Compositor : (Luiz Gonzaga / Humberto Teixeira)

Cifras Cancelar Versão de Impressão
cifras

Luíz Gonzaga - Asa Branca (Viola Caipira)

fixar na tela  
Exibindo: vídeo-aula ver clipes redimensionar
  
Melodia: 

E |--------0-----0-----0-----0---0---------0-| 
B |----------------------------------------0-| 
G#|------------------------------------5-----| 
E |--0---2----4----7-----7---------5---------| 
B |------------------------------------------| 

E |-----------0------0-----0-----0------0----| 
B |------------------------------------------| 
G#|------------------------------------------| 
E |--0--2--4-----7------7-----5-----4--------| 
B |------------------------------------------| 

E |-----------0----0---------------0------0---------0---0---------12HA-| 
B |---------------------------------------0-----------------------12HA-| 
G#|------------------------------------5-------------------------------| 
E |--0--2--4----7-----7--5--4--0----5--------4--2--2--4---2-2-0-0------| 
B |--------------------------------------------------------------------| 

E |--------0-----0-----0-----0---0---------0-| 
B |----------------------------------------0-| 
G#|------------------------------------5-----| 
E |--0---2----4----7-----7---------5---------| 
B |------------------------------------------| 

E |-----------0------0-----0-----0------0--| 
B |-------------------------------------0--| 
G#|-----------------------------------3----| 
E |--0--2--4-----7------7-----5-----4------| 
B |----------------------------------------| 

E |-----------0----0---------------0------0---------0---0---------12HA-| 
B |---------------------------------------0-----------------------12HA-| 
G#|------------------------------------5-------------------------------| 
E |--0--2--4----7-----7--5--4--0----5--------4--2--2--4---2-2-0-0------| 
B |--------------------------------------------------------------------| 

Com Intervalo: 

E |----------------------------------| 
B |----------------------------------| 
G#|--0----1----3----6----6----3----5-| 
E |--0----2----4----7----7----4----5-| 
B |----------------------------------| 

E |-------------0----0---0----0---| 
B |-------------------------------| 
G#|--0---1---3---6----6----5----3-| 
E |--0---2---4---7----7----5----4-| 
B |-------------------------------| 

E |----------0--------------------------------------------| 
B |-------------------------------------------------------| 
G#|--0--1--3--6--6--5--3--0--5--3--3--1--1--3--1--1--0--0-| 
E |--0--2--4--7--7--5--4--0--5--4--4--2--2--4--2--2--0--0-| 
B |-----------------------------------------------------0-| 

E |----------0--------------------------------------------| 
B |-------------------------------------------------------| 
G#|--0--1--3--6--6--5--3--0--5--3--3--1--1--3--1--1--0--0-| 
E |--0--2--4--7--7--5--4--0--5--4--4--2--2--4--2--2--0--0-| 
B |-----------------------------------------------------0-| 


E |--0--10--0--9--0--7--0--5--0--4--0--2--0------0--0-| 
B |------------------------------------------2--------| 
G#|---------------------------------------------------| 
E |---------------------------------------------------| 
B |------0----0-----0------0-----0-----0-----0------0-| 
  

top 5 | luíz gonzaga
top forró
Outras músicas do artista letras do(a) Luíz Gonzaga
Top cifras »Top artistas »
Petaxxon Comunicação Online
Cifras.com.br - Melhor e mais completo site de cifras e tablaturas do Brasil
Mais de 1 milhão de acordes de músicas cadastradas desde 2003
As informações contidas no nosso site são colaborações de seus usuários e podem conter erros, sendo assim, não nos responsabilizamos sobre nenhuma destas.
close
menos
mais
close
Cor dos acordes:

Cor da letra:

 

save
close
close
 
redimensionar