Cifras e Tablaturas
Mac Demarco

Mac Demarco

Passing Out The Pieces

Cifras Cancelar Versão de Impressão
cifras

Mac Demarco - Passing Out The Pieces

fixar na tela  
Exibindo: vídeo-aula ver clipes redimensionar
  

E|---------------------------|--------------------------| 
B|---------------------------|--------------------------| 
G|-----5----7----2-----------|----5----7----2-----------| 
D|-------7----5----2---3-2-0-|------7----5----2-----0---| 
A|-3-------------------------|-3----------------------3-| 
E|---------------------------|--------------------------| 


  Keys 2 (arranged for guitar) 

    C         Dm        G7        Emb6               C 
E|-0000-0000-1111-1111-1111-1111-0000-0000-|      |-0000-0000-| 
B|-1111-1111-3333-3333-3333-3333-1111-1111-|      |-1111-1111-| 
G|-0000-0000-2222-2222-0000-0000-0000-0000-|      |-0000-0000-| 
D|-2222-2222-0000-0000-0000-0000-2222-2222-|      |-2222-2222-| 
A|-3333-3333-----------2222-2222-2222-2222-|      |-3333-3333-| 
E|---------------------3333-3333-0000-0000-| x2 |-----------| 



Verse 

  Keys 1 (arranged for guitar) 

E|---------------------------|--------------------------| 
B|---------------------------|--------------------------| 
G|-----5----7----2-----------|----5----7----2-----------| 
D|-------7----5----2---3-2-0-|------7----5----2-----0---| 
A|-3-------------------------|-3----------------------3-| 
E|---------------------------|--------------------------| 


  Keys 2 (arranged for guitar) 

    C         Dm        G7        Emb6               C 
E|-0000-0000-1111-1111-1111-1111-0000-0000-|      |-0000-0000-| 
B|-1111-1111-3333-3333-3333-3333-1111-1111-|      |-1111-1111-| 
G|-0000-0000-2222-2222-0000-0000-0000-0000-|      |-0000-0000-| 
D|-2222-2222-0000-0000-0000-0000-2222-2222-|      |-2222-2222-| 
A|-3333-3333-----------2222-2222-2222-2222-|      |-3333-3333-| 
E|---------------------3333-3333-0000-0000-| x2 |-----------| 



Chorus 

  Lead 

E|-5-----5-------5-----5---|-------10------10--------10------10-| 
B|---3-----3-------3-------|-----8-------8---------8-------8----| 
G|-----5-----5-------5---5-|-/10------10--------10------10------| 
D|-------------------------|------------------------------------| 
A|-------------------------|------------------------------------| 
E|-------------------------|------------------------------------| 


E|-5-----5-------5-----5---|-------10------10-----------12-------12-|-------12-------12-| 
B|---3-----3-------3-------|-----8-------8-----------10-------10----|----10-------10----| 
G|-----5-----5-------5---5-|-/10------10-------10/12-------12-------|-12-------12-------| 
D|-------------------------|----------------------------------------|-------------------| 
A|-------------------------|----------------------------------------|-------------------| 
E|-------------------------|----------------------------------------|-------------------| 

  Rhythm (arranged for guitar) 

    Dm   Am   Dm   Am     Bbmaj7 
E|-1111-0000-1111-0000-|-1111-1111-1111-1111-| 
B|-3333-1111-3333-1111-|-3333-3333-3333-3333-| 
G|-2222-2222-2222-2222-|-2222-2222-2222-2222-| 
D|-0000-2222-0000-2222-|-3333-3333-3333-3333-| 
A|------0000------0000-|-1111-1111-1111-1111-| 
E|---------------------|---------------------| 


    Dm   Am   Dm   Am     Bbmaj7    C 
E|-1111-0000-1111-0000-|-1111-1111-0000-0000-|-0000-000-| 
B|-3333-1111-3333-1111-|-3333-3333-1111-1111-|-1111-111-| 
G|-2222-2222-2222-2222-|-2222-2222-0000-0000-|-0000-000-| 
D|-0000-2222-0000-2222-|-3333-3333-2222-2222-|-2222-222-| 
A|------0000------0000-|-1111-1111-3333-3333-|-3333-333-| 
E|---------------------|---------------------|----------| 



Repeat Intro: 

Interlude 

  Keys 1 (arranged for guitar) 

E|---------------------------|--------------------------| 
B|---------------------------|--------------------------| 
G|-----5----7----2-----------|----5----7----2-----------| 
D|-------7----5----2---3-2-0-|------7----5----2-----0---| 
A|-3-------------------------|-3----------------------3-| 
E|---------------------------|--------------------------| 


  Keys 2 (arranged for guitar) 

    C         Dm        G7        Emb6               C 
E|-0000-0000-1111-1111-1111-1111-0000-0000-|      |-0000-0000-| 
B|-1111-1111-3333-3333-3333-3333-1111-1111-|      |-1111-1111-| 
G|-0000-0000-2222-2222-0000-0000-0000-0000-|      |-0000-0000-| 
D|-2222-2222-0000-0000-0000-0000-2222-2222-|      |-2222-2222-| 
A|-3333-3333-----------2222-2222-2222-2222-|      |-3333-3333-| 
E|---------------------3333-3333-0000-0000-| x2 |-----------| 



Repeat Chorus ..."yeah" 

Chorus 

  Lead 

E|-5-----5-------5-----5---|-------10------10--------10------10-| 
B|---3-----3-------3-------|-----8-------8---------8-------8----| 
G|-----5-----5-------5---5-|-/10------10--------10------10------| 
D|-------------------------|------------------------------------| 
A|-------------------------|------------------------------------| 
E|-------------------------|------------------------------------| 


E|-5-----5-------5-----5---|-------10------10-----------12-------12-|-------12-------12-| 
B|---3-----3-------3-------|-----8-------8-----------10-------10----|----10-------10----| 
G|-----5-----5-------5---5-|-/10------10-------10/12-------12-------|-12-------12-------| 
D|-------------------------|----------------------------------------|-------------------| 
A|-------------------------|----------------------------------------|-------------------| 
E|-------------------------|----------------------------------------|-------------------| 

  Rhythm (arranged for guitar) 

    Dm   Am   Dm   Am     Bbmaj7 
E|-1111-0000-1111-0000-|-1111-1111-1111-1111-| 
B|-3333-1111-3333-1111-|-3333-3333-3333-3333-| 
G|-2222-2222-2222-2222-|-2222-2222-2222-2222-| 
D|-0000-2222-0000-2222-|-3333-3333-3333-3333-| 
A|------0000------0000-|-1111-1111-1111-1111-| 
E|---------------------|---------------------| 


    Dm   Am   Dm   Am     Bbmaj7    C 
E|-1111-0000-1111-0000-|-1111-1111-0000-0000-|-0000-000-| 
B|-3333-1111-3333-1111-|-3333-3333-1111-1111-|-1111-111-| 
G|-2222-2222-2222-2222-|-2222-2222-0000-0000-|-0000-000-| 
D|-0000-2222-0000-2222-|-3333-3333-2222-2222-|-2222-222-| 
A|------0000------0000-|-1111-1111-3333-3333-|-3333-333-| 
E|---------------------|---------------------|----------| 



Outro 

x3 

  Keys 1 (for guitar) 

E|---------------------------| 
B|---------------------------| 
G|-----5----7----2-----------| 
D|-------7----5----2---3-2-0-| 
A|-3-------------------------| 
E|---------------------------| 


  Keys 2 (for guitar) 

E|-0000-0000-1111-1111-1111-1111-0000-0000-| 
B|-1111-1111-3333-3333-3333-3333-1111-1111-| 
G|-0000-0000-2222-2222-0000-0000-0000-0000-| 
D|-2222-2222-0000-0000-0000-0000-2222-2222-| 
A|-3333-3333-----------2222-2222-2222-2222-| 
E|---------------------3333-3333-0000-0000-| 
  

cifra enviadasem correções
enviado porenviada por:adalgomes
top 5 | mac demarco
top rock alternativo
Outras músicas do artista letras do(a) Mac Demarco
Top cifras »Top artistas »
Petaxxon Comunicação Online
Cifras.com.br - Melhor e mais completo site de cifras e tablaturas do Brasil
Mais de 1 milhão de acordes de músicas cadastradas desde 2003
As informações contidas no nosso site são colaborações de seus usuários e podem conter erros, sendo assim, não nos responsabilizamos sobre nenhuma destas.
close
menos
mais
close
Cor dos acordes:

Cor da letra:

 

save
close
close
 
redimensionar