Cifras e Tablaturas
Maisie Peters

Maisie Peters

The Place We Were Made

Cifras Cancelar Versão de Impressão
cifras

Maisie Peters - The Place We Were Made

fixar na tela  
Exibindo: vídeo-aula ver clipes redimensionar
  
Intro 
        C                       Am7 
e|---------------------------------------------------------| 
B|---------1-----1-----1-----1-----1-----1-----1-----1-----| 
G|-------0-----0-----0-----0-----0-----0-----0-----0-------| 
D|---------------------------------------------------------| 
A|-----3-----3-----3-----3-----0-----0-----0-----0---------| 
E|---------------------------------------------------------| 

        G                       F 
e|---------------------------------------------------------| 
B|---------1-----1-----1-----1-----1-----1-----1-----1-----| 
G|-------0-----0-----0-----0-----0-----0-----0-----0-------| 
D|---------------------------------------------------------| 
A|---------------------------------------------------------| 
E|-----3-----3-----3-----3-----1-----1-----1-----1---------| 

verse 1 
(Play 2x) 
        C                       Am7 
e|---------------------------------------------------------| 
B|---------1-----1-----1-----1-----1-----1-----1-----1-----| 
G|-------0-----0-----0-----0-----0-----0-----0-----0-------| 
D|---------------------------------------------------------| 
A|-----3-----3-----3-----3-----0-----0-----0-----0---------| 
E|---------------------------------------------------------| 

        G                       F 
e|---------------------------------------------------------| 
B|---------1-----1-----1-----1-----1-----1-----1-----1-----| 
G|-------0-----0-----0-----0-----0-----0-----0-----0-------| 
D|---------------------------------------------------------| 
A|---------------------------------------------------------| 
E|-----3-----3-----3-----3-----1-----1-----1-----1---------| 

Pre-Chorus 
        Am7                     G 
e|---------------------------------------------------------| 
B|---------1-----1-----1-----1-----1-----1-----1-----1-----| 
G|-------0-----0-----0-----0-----0-----0-----0-----0-------| 
D|---------------------------------------------------------| 
A|-----0-----0-----0-----0---------------------------------| 
E|-----------------------------3-----3-----3-----3---------| 

        Em                      F 
e|---------------------------------------------------------| 
B|---------1-----1-----1-----1-----1-----1-----1-----1-----| 
G|-------0-----0-----0-----0-----0-----0-----0-----0-------| 
D|---------------------------------------------------------| 
A|---------------------------------------------------------| 
E|-----0-----0-----0-----0-----1-----1-----1-----1---------| 

        Am7                     G 
e|---------------------------------------------------------| 
B|---------1-----1-----1-----1-----1-----1-----1-----------| 
G|-------0-----0-----0-----0-----0-----0-----0-------------| 
D|---------------------------------------------------------| 
A|-----0-----0-----0-----0---------------------------------| 
E|-----------------------------3-----3-----3---------------| 

Chorus 
(Play 4x) 
        C           Dm7         Em          F 
e|---------------------------------------------------------| 
B|---------1-----1-----1-----1-----1-----1-----1-----1-----| 
G|-------0-----0-----0-----0-----0-----0-----0-----0-------| 
D|-----------------0-----0---------------------------------| 
A|-----3-----3---------------------------------------------| 
E|-----------------------------0-----0-----1-----1---------| 

        G                       Am7         F 
e|---------------------------------------------------------| 
B|---------1-----1-----1-----1-----1-----1-----1-----1-----| 
G|-------0-----0-----0-----0-----0-----0-----0-----0-------| 
D|---------------------------------------------------------| 
A|-----------------------------0-----0---------------------| 
E|-----3-----3-----3-----3-----------------1-----1---------| 

Instrumental 
        C                       Am7 
e|---------------------------------------------------------| 
B|---------1-----1-----1-----1-----1-----1-----1-----1-----| 
G|-------0-----0-----0-----0-----0-----0-----0-----0-------| 
D|---------------------------------------------------------| 
A|-----3-----3-----3-----3-----0-----0-----0-----0---------| 
E|---------------------------------------------------------| 

        G                       F 
e|---------------------------------------------------------| 
B|---------1-----1-----1-----1-----1-----1-----1-----1-----| 
G|-------0-----0-----0-----0-----0-----0-----0-----0-------| 
D|---------------------------------------------------------| 
A|---------------------------------------------------------| 
E|-----3-----3-----3-----3-----1-----1-----1-----1---------| 

verse 2 
(Play 2x) 
        C                       Am7 
e|---------------------------------------------------------| 
B|---------1-----1-----1-----1-----1-----1-----1-----1-----| 
G|-------0-----0-----0-----0-----0-----0-----0-----0-------| 
D|---------------------------------------------------------| 
A|-----3-----3-----3-----3-----0-----0-----0-----0---------| 
E|---------------------------------------------------------| 

        G                       F 
e|---------------------------------------------------------| 
B|---------1-----1-----1-----1-----1-----1-----1-----1-----| 
G|-------0-----0-----0-----0-----0-----0-----0-----0-------| 
D|---------------------------------------------------------| 
A|---------------------------------------------------------| 
E|-----3-----3-----3-----3-----1-----1-----1-----1---------| 

Pre-Chorus 
        Am7                     G 
e|---------------------------------------------------------| 
B|---------1-----1-----1-----1-----1-----1-----1-----1-----| 
G|-------0-----0-----0-----0-----0-----0-----0-----0-------| 
D|---------------------------------------------------------| 
A|-----0-----0-----0-----0---------------------------------| 
E|-----------------------------3-----3-----3-----3---------| 

        Em                      F 
e|---------------------------------------------------------| 
B|---------1-----1-----1-----1-----1-----1-----1-----1-----| 
G|-------0-----0-----0-----0-----0-----0-----0-----0-------| 
D|---------------------------------------------------------| 
A|---------------------------------------------------------| 
E|-----0-----0-----0-----0-----1-----1-----1-----1---------| 

        Am7                     G 
e|---------------------------------------------------------| 
B|---------1-----1-----1-----1-----1-----1-----1-----------| 
G|-------0-----0-----0-----0-----0-----0-----0-------------| 
D|---------------------------------------------------------| 
A|-----0-----0-----0-----0---------------------------------| 
E|-----------------------------3-----3-----3---------------| 

Chorus 
(Play 4x) 
        C           Dm7         Em          F 
e|---------------------------------------------------------| 
B|---------1-----1-----1-----1-----1-----1-----1-----1-----| 
G|-------0-----0-----0-----0-----0-----0-----0-----0-------| 
D|-----------------0-----0---------------------------------| 
A|-----3-----3---------------------------------------------| 
E|-----------------------------0-----0-----1-----1---------| 

        G                       Am7         F 
e|---------------------------------------------------------| 
B|---------1-----1-----1-----1-----1-----1-----1-----1-----| 
G|-------0-----0-----0-----0-----0-----0-----0-----0-------| 
D|---------------------------------------------------------| 
A|-----------------------------0-----0---------------------| 
E|-----3-----3-----3-----3-----------------1-----1---------| 

Bridge 
(Same as Pre-Chorus) 
        Am7                     G 
e|---------------------------------------------------------| 
B|---------1-----1-----1-----1-----1-----1-----1-----1-----| 
G|-------0-----0-----0-----0-----0-----0-----0-----0-------| 
D|---------------------------------------------------------| 
A|-----0-----0-----0-----0---------------------------------| 
E|-----------------------------3-----3-----3-----3---------| 

        Em                      F 
e|---------------------------------------------------------| 
B|---------1-----1-----1-----1-----1-----1-----1-----1-----| 
G|-------0-----0-----0-----0-----0-----0-----0-----0-------| 
D|---------------------------------------------------------| 
A|---------------------------------------------------------| 
E|-----0-----0-----0-----0-----1-----1-----1-----1---------| 

        Am7                     G 
e|---------------------------------------------------------| 
B|---------1-----1-----1-----1-----1-----1-----1-----------| 
G|-------0-----0-----0-----0-----0-----0-----0-------------| 
D|---------------------------------------------------------| 
A|-----0-----0-----0-----0---------------------------------| 
E|-----------------------------3-----3-----3---------------| 

Final Chorus 
(Play 4x) 
        C           Dm7         Em          F 
e|---------------------------------------------------------| 
B|---------1-----1-----1-----1-----1-----1-----1-----1-----| 
G|-------0-----0-----0-----0-----0-----0-----0-----0-------| 
D|-----------------0-----0---------------------------------| 
A|-----3-----3---------------------------------------------| 
E|-----------------------------0-----0-----1-----1---------| 

        G                       Am7         F 
e|---------------------------------------------------------| 
B|---------1-----1-----1-----1-----1-----1-----1-----1-----| 
G|-------0-----0-----0-----0-----0-----0-----0-----0-------| 
D|---------------------------------------------------------| 
A|-----------------------------0-----0---------------------| 
E|-----3-----3-----3-----3-----------------1-----1---------| 

        C 
e|-------------| 
B|-------1-----| 
G|-------------| 
D|-------------| 
A|-----3-------| 
E|-------------| 
  

cifra enviadasem correções
enviado porenviada por:brunblazkowski
top 5 | maisie peters
top rock'n roll
Outras músicas do artista letras do(a) Maisie Peters
Top cifras »Top artistas »
Petaxxon Comunicação Online
Cifras.com.br - Melhor e mais completo site de cifras e tablaturas do Brasil
Mais de 1 milhão de acordes de músicas cadastradas desde 2003
As informações contidas no nosso site são colaborações de seus usuários e podem conter erros, sendo assim, não nos responsabilizamos sobre nenhuma destas.
close
menos
mais
close
Cor dos acordes:

Cor da letra:

 

save
close
close
 
redimensionar