Cifras e Tablaturas
Malukah

Malukah

Lelianas Song (dragon Age: Origins)

Cifras Cancelar Versão de Impressão
cifras

Malukah - Lelianas Song (dragon Age: Origins)

fixar na tela  
Exibindo: vídeo-aula ver clipes redimensionar
  
E   S  S Q    Q        H        Q.      E 
E|--11-------------13----|--10-------11-10-8----6----|--10---------------11--| 
B|--13-------------------|--11-----------------------|--11-------------------| 
G|--12-------------------|--12-----------------------|--10-------------------| 
D|-----------------------|---------------------------|-----------------------| 
A|-----------------------|---------------------------|-----------------------| 
E|-----------------------|---------------------------|-----------------------| 


      W                    H        Q     Q        Q    E   S  S Q    Q      
E|---8----------------|--11-------------13----|--10-------11-10-8----6----| 
B|--10----------------|--13-------------------|--11-----------------------| 
G|--10----------------|--12-------------------|--12-----------------------| 
D|--------------------|-----------------------|---------------------------| 
A|--------------------|-----------------------|---------------------------| 
E|--------------------|-----------------------|---------------------------| 


      H        Q.      E      H        Q.      E     Q    H        Q      
E|--10---------------11--|---8-------------------|--8-------------8----| 
B|--11-------------------|--10---------------11--|---------------------| 
G|--12-------------------|--10-------------------|---------------------| 
D|-----------------------|-----------------------|---------------------| 
A|-----------------------|-----------------------|---------------------| 
E|-----------------------|-----------------------|---------------------| 

                                          |---3---|                             

      H.           Q       E   E   Q    Q     E   E   E      Q    H         E  E 
E|---------------8----|--8--15--15---------13--15--13--|--11-------------10--8--| 
B|--------------------|--------------------------------|------------------------| 
G|--------------------|--------------------------------|------------------------| 
D|--------------------|--------------------------------|------------------------| 
A|--------------------|--------------------------------|------------------------| 
E|--------------------|--------------------------------|------------------------| 


       E   E   E  Q.      E   S  S     Q    H.              E   E   E  H        E 
E|--10--11--13---------11--13-11-|--10-----------------|--8--10--11--------------| 
B|-------------------------------|---------------------|-------------------------| 
G|-------------------------------|---------------------|-------------------------| 
D|-------------------------------|---------------------|-------------------------| 
A|-------------------------------|---------------------|-------------------------| 
E|-------------------------------|---------------------|-------------------------| 


     E   E   Q    H            E   E   E  Q.      E   S  S   
E|--8--10--11-------------|--10--11--13---------11--13-11-| 
B|------------------------|-------------------------------| 
G|------------------------|-------------------------------| 
D|------------------------|-------------------------------| 
A|------------------------|-------------------------------| 
E|------------------------|-------------------------------| 


      Q    Q    Q    E  E      H         H           H        Q     Q      
E|--10---------8-------6--|--10------------------|-----------8----15----| 
B|------------------------|------------10--------|----------------------| 
G|------------------------|----------------------|----------------------| 
D|------------------------|----------------------|----------------------| 
A|------------------------|----------------------|----------------------| 
E|------------------------|----------------------|----------------------| 

      |---3---|                                                                

      E   E   E   Q    Q.      E      H         H                            
E|--13--15--13-------------------|----------------------| 
B|--------------15---------------|--15--------13--------| 
G|---------------------------15--|----------------------| 
D|-------------------------------|----------------------| 
A|-------------------------------|----------------------| 
E|-------------------------------|----------------------| 


     H        Q     Q        E   E   E   Q    Q     E      H         H          
E|-----------8----15----|--13--15--13-----------------|----------------------| 
B|----------------------|--------------15-------------|--15--------13--------| 
G|----------------------|-------------------------15--|----------------------| 
D|----------------------|-----------------------------|----------------------| 
A|----------------------|-----------------------------|----------------------| 
E|----------------------|-----------------------------|----------------------| 


     W                    H        Q     Q        Q    E   S  S Q    Q      
E|-------------------|--11-------------13----|--10-------11-10-8----6----| 
B|-------------------|--13-------------------|--11-----------------------| 
G|-------------------|--12-------------------|--12-----------------------| 
D|-------------------|-----------------------|---------------------------| 
A|-------------------|-----------------------|---------------------------| 
E|-------------------|-----------------------|---------------------------| 


      H        Q.      E      W                    H        Q     Q      
E|--10---------------11--|---8----------------|--11-------------13----| 
B|--11-------------------|--10----------------|--13-------------------| 
G|--10-------------------|--10----------------|--12-------------------| 
D|-----------------------|--------------------|-----------------------| 
A|-----------------------|--------------------|-----------------------| 
E|-----------------------|--------------------|-----------------------| 


      Q    E   S  S Q    Q        H        Q.      E      H        H          
E|--10-------11-10-8----6----|--10---------------11--|---8-----------------| 
B|--11-----------------------|--11-------------------|--10-----------------| 
G|--12-----------------------|--12-------------------|--10-----------------| 
D|---------------------------|-----------------------|---------------------| 
A|---------------------------|-----------------------|---------------------| 
E|---------------------------|-----------------------|---------------------| 


      H         Q     Q        H         H            H         Q     Q      
E|--15--------15----13----|--15--------15--------|--13--------13----11----| 
B|--15--------------12----|----------------------|------------------------| 
G|--16--------16----------|--15--------15--------|--15--------15----------| 
D|------------------------|----------------------|------------------------| 
A|------------------------|----------------------|------------------------| 
E|------------------------|----------------------|------------------------| 


      H         H            Q    E   E   E   S S  E   E      H         H          
E|--13--------13--------|--11-------11--11--13-----------|----------------------| 
B|--13--------13--------|--13-------13--13--16---16--15--|--16--------16--------| 
G|--13--------13--------|-------------------17-----------|----------------------| 
D|----------------------|--------------------------------|----------------------| 
A|----------------------|--------------------------------|----------------------| 
E|----------------------|--------------------------------|----------------------| 


      Q    E  T  T  T  T  Q    Q        W                    H         Q     Q      
E|---------------------------------|--------------------|--15--------15----------| 
B|--15---------15-16-15-13---------|--13----------------|--15--------------18----| 
G|---------------------------------|--------------------|--16--------16----16----| 
D|---------------------------------|--------------------|------------------------| 
A|---------------------------------|--------------------|------------------------| 
E|---------------------------------|--------------------|------------------------| 


      H         H            H         Q     Q        H         H          
E|--15--------15--------|--13--------13----11----|--13--------13--------| 
B|----------------------|------------------------|--13--------13--------| 
G|--15--------15--------|--15--------15----------|--13--------13--------| 
D|----------------------|------------------------|----------------------| 
A|----------------------|------------------------|----------------------| 
E|----------------------|------------------------|----------------------| 


      Q    E   E   E.   S  E   E      H         H          
E|--11-------11--11---13---------|----------------------| 
B|--13-------13--13---16-16--15--|--16--------16--------| 
G|--------------------17---------|----------------------| 
D|-------------------------------|----------------------| 
A|-------------------------------|----------------------| 
E|-------------------------------|----------------------| 


      Q    E  T  T  T  T  Q     E   S S     W                                   
E|-------------------------------------|--------------------| 
B|--15---------15-16-15-13--------15---|--13----------------| 
G|----------------------------15-------|--------------------| 
D|-------------------------------------|--------------------| 
A|-------------------------------------|--------------------| 
E|-------------------------------------|--------------------| 


       H        Q     Q        Q    E   S  S Q    Q        H        Q.      E 
E|--11-------------13----|--10-------11-10-8----6----|--10---------------11--| 
B|--13-------------------|--11-----------------------|--11-------------------| 
G|--12-------------------|--12-----------------------|--10-------------------| 
D|-----------------------|---------------------------|-----------------------| 
A|-----------------------|---------------------------|-----------------------| 
E|-----------------------|---------------------------|-----------------------| 


      W                    H        Q     Q        Q    E   S  S Q    Q      
E|---8----------------|--11-------------13----|--10-------11-10-8----6----| 
B|--10----------------|--13-------------------|--11-----------------------| 
G|--10----------------|--12-------------------|--12-----------------------| 
D|--------------------|-----------------------|---------------------------| 
A|--------------------|-----------------------|---------------------------| 
E|--------------------|-----------------------|---------------------------| 


      H        Q     E  E      H        Q.      E     W                  
E|--10-------------11-----|---8-------------------|--8----------------| 
B|--11--------------------|--10---------------11--|-------------------| 
G|--12--------------------|--10-------------------|-------------------| 
D|------------------------|-----------------------|-------------------| 
A|------------------------|-----------------------|-------------------| 
E|------------------------|-----------------------|-------------------| 


                         SEGUNDA GUITARRA (acústica)                                


      E  E  E  E  E  E  E  E     E  E  E  E  E  E  E  E 
E|--------------3-----------|--------------------------| 
B|--------1--4-----4--------|--------------3-----------| 
G|-----0--------------5-----|--------0--3-----3--0-----| 
D|-----------------------5--|-----0-----------------0--| 
A|--3-----------------------|--------------------------| 
E|--------------------------|--3-----------------------| 


      E  E  E  E  E  E  E  E     E  E  E  E  E  E  E  E 
E|--------------1-----------|--------------------------| 
B|-----------3--------------|--------------1-----------| 
G|--------3--------3--------|-----------2-----2--------| 
D|-----3--------------3-----|--------3-----------3-----| 
A|--1-----------------------|-----3-----------------3--| 
E|--------------------------|--1-----------------------| 


      E  E  E  E  E  E  E  E     E  E  E  E  E  E  E  E 
E|--------------3-----------|--------------------------| 
B|--------1--4-----4--------|--------------------------| 
G|-----0--------------5-----|--------------3--0--------| 
D|-----------------------5--|-----------5--------1-----| 
A|--3-----------------------|--------6--------------1--| 
E|--------------------------|-----6--------------------| 


      E  E  E  E  E  E  E  E     E  E  E  E  E  E  E  E 
E|--------------------------|--------------------------| 
B|--------------3-----------|--------------1-----------| 
G|--------0--3-----3--0-----|-----------2-----2--------| 
D|-----0-----------------0--|--------3-----------3-----| 
A|--------------------------|-----3-----------------3--| 
E|--3-----------------------|--1-----------------------| 


     E  E  E  E  E  E  E  E     E  E  E  E  E  E  E  E     E  E  E  E  Q    Q      
E|--------------------------|--------------------------|------------------------| 
B|--------1--4--3-----------|--------1--4--3-----------|--------1--4-------1----| 
G|-----0-----------3-----0--|-----0-----------3-----0--|-----0------------------| 
D|--------------------3-----|--------------------3-----|------------------------| 
A|--3-----------------------|--3-----------------------|--3---------------------| 
E|--------------------------|--------------------------|------------------------| 


      E  E  E  E  E  E  E  E     E  E  E  E  E  E  E  E 
E|--------------3-----------|--------------------------| 
B|--------1--4-----4--------|--------------3-----------| 
G|-----0--------------5-----|--------0--3-----3--0-----| 
D|-----------------------5--|-----0-----------------0--| 
A|--3-----------------------|--------------------------| 
E|--------------------------|--3-----------------------| 


      E  E  E  E  E  E  E  E     E  E  E  E  E  E  E  E 
E|--------------1-----------|--------------------------| 
B|-----------3-----3--------|--------------1-----------| 
G|--------3-----------3-----|-----------1-----1--------| 
D|-----3-----------------3--|--------3-----------3-----| 
A|--1-----------------------|-----3-----------------3--| 
E|--------------------------|--1-----------------------| 


      E  E  E  E  E  E  E  E     E  E  E  E  E  E  E  E 
E|--------------3-----------|--------------------------| 
B|--------1--4-----4--------|--------------3-----------| 
G|-----0--------------5-----|--------0--3-----3--0-----| 
D|-----------------------5--|-----0-----------------0--| 
A|--3-----------------------|--------------------------| 
E|--------------------------|--3-----------------------| 


      E  E  E  E  E  E  E  E     E  E  E  E  E  E  E  E 
E|--------------1-----------|--------------------------| 
B|-----------3-----3--------|--------------1-----------| 
G|--------3-----------3-----|--------2-----------2-----| 
D|-----3-----------------3--|-----3-----3-----3-----3--| 
A|--1-----------------------|--0-----------------------| 
E|--------------------------|--------------------------| 


      E  E  E  E  E  E  E  E     E  E  E  E  E  E  E  E 
E|--------------------------|--------------1-----------| 
B|-----------1--4--1--------|-----------3-----3--------| 
G|--------1-----------1-----|--------3-----------3-----| 
D|-----1-----------------2--|-----3-----------------3--| 
A|--------------------------|--1-----------------------| 
E|--4-----------------------|--------------------------| 


      E  E  E  E  E  E  E  E     E  E  E  E  E  E  E  E 
E|--------------3-----------|--------------3-----------| 
B|--------1--4-----4--------|--------1--4-----4--------| 
G|-----0--------------5-----|-----0-----------------3--| 
D|-----------------------5--|--------------------------| 
A|--3-----------------------|--3-----------------1-----| 
E|--------------------------|--------------------------| 


      E  E  E  E  E  E  E  E     E  E  E  E  E  E  E  E 
E|--------------------------|--------------1-----------| 
B|-----------1--4--1--------|-----------3-----3--------| 
G|--------1-----------1-----|--------3-----------3-----| 
D|-----1-----------------1--|-----3-----------------3--| 
A|--------------------------|--1-----------------------| 
E|--4-----------------------|--------------------------| 


      E  E  E  E  E  E  E  E     E  E  E  E  E  E  E  E 
E|-----------0--3--0--------|-----------0--3--0--------| 
B|--------1-----------1-----|--------1-----------1-----| 
G|-----0-----------------0--|-----0-----------------0--| 
D|--------------------------|--------------------------| 
A|--3-----------------------|--3-----------------------| 
E|--------------------------|--------------------------| 


      E  E  E  E  E  E  E  E     E  E  E  E  E  E  E  E 
E|-----------0--3--0--------|--------------------------| 
B|--------1-----------1-----|--------------3-----------| 
G|-----0-----------------0--|--------0--3-----3--0-----| 
D|--------------------------|-----0-----------------0--| 
A|--3-----------------------|--------------------------| 
E|--------------------------|--3-----------------------| 


      E  E  E  E  E  E  E  E     E  E  E  E  E  E  E  E 
E|--------------1-----------|--------------------------| 
B|-----------3-----3--------|--------------1-----------| 
G|--------3-----------3-----|-----------2-----2--------| 
D|-----3-----------------3--|--------3-----------3-----| 
A|--1-----------------------|-----3-----------------3--| 
E|--------------------------|--1-----------------------| 


      E  E  E  E  E  E  E  E     E  E  E  E  E  E  E  E 
E|--------------3-----------|--------------------------| 
B|--------1--4-----4--------|--------------------------| 
G|-----0--------------5-----|-----------0--3--0--------| 
D|-----------------------5--|--------2-----------2-----| 
A|--3-----------------------|-----1-----------------1--| 
E|--------------------------|--0-----------------------| 


      E  E  E  E  E  E  E  E     E  E  E  E  E  E  E  E 
E|--------------------------|--------------------------| 
B|--------------3-----------|--------------1-----------| 
G|--------0--3-----3--0-----|-----------2-----2--------| 
D|-----0-----------------0--|--------3-----------3-----| 
A|--------------------------|-----3-----------------3--| 
E|--3-----------------------|--1-----------------------| 

  
      E  E  E  E  E  E  E  E     E  E  E  E  E  E  E  E 
E|--------------------------|--------------------------| 
B|-----------0--3--0--------|--------------------------| 
G|--------0-----------0-----|-----------0--3--0--------| 
D|-----0-----------------0--|--------2-----------2-----| 
A|--------------------------|-----1-----------------1--| 
E|--3-----------------------|--0-----------------------| 


      E  E  E  E  E  E  E  E     E  E  E  E  E  E  E  E 
E|--------------1-----------|--------------------------| 
B|-----------2-----2--------|--------------1-----------| 
G|--------3-----------3-----|-----------1-----1--------| 
D|-----3-----------------3--|--------3-----------3-----| 
A|--1-----------------------|-----3-----------------3--| 
E|--------------------------|--1-----------------------| 


      E  E  E  E  E  E  E  E     E  E  E  E  E  E  E  E 
E|--------------0-----------|--------------------------| 
B|-----------1-----1--------|--------------------------| 
G|--------1-----------1-----|--------------------------| 
D|-----2-----------------2--|-----------0--------1--3--| 
A|--------------------------|--------3--------1--------| 
E|--4-----------------------|-----3--------------------| 


      E  E  E  E  E  E  E  E     E  E  E  E  E  E  E  E 
E|--------------------------|--------------------------| 
B|--------------3-----------|--------------1-----------| 
G|--------0--3-----3--0-----|-----------2-----2--------| 
D|-----0-----------------0--|--------3-----------3-----| 
A|--------------------------|-----3-----------------3--| 
E|--3-----------------------|--1-----------------------| 


      E  E  E  E  E  E  E  E     E  E  E  E  E  E  E  E 
E|--------------------------|--------------------------| 
B|-----------0--3--0--------|--------------------------| 
G|--------0-----------0-----|-----------0--3--0--------| 
D|-----0-----------------0--|--------1-----------1-----| 
A|--------------------------|-----1-----------------1--| 
E|--3-----------------------|--------------------------| 


      E  E  E  E  E  E  E  E     E  E  E  E  E  E  E  E 
E|--------------1-----------|--------------------------| 
B|-----------2-----2--------|--------------1-----------| 
G|--------3-----------3-----|-----------1-----1--------| 
D|-----3-----------------3--|--------3-----------3-----| 
A|--1-----------------------|-----3-----------------3--| 
E|--------------------------|--1-----------------------| 


      E  E  E  E  E  E  E  E     E  E  E  E  E  E  E  E 
E|--------------------------|--------------------------| 
B|-----------1--4--1--------|--------------------------| 
G|--------1-----------1-----|--------------------------| 
D|-----1-----------------1--|-----------0--------1--3--| 
A|--------------------------|--------3--------1--------| 
E|--4-----------------------|-----3--------------------| 


      E  E  E  E  E  E  E  E     E  E  E  E  E  E  E  E 
E|--------------------------|--------------------------| 
B|--------------3-----------|--------------1-----------| 
G|--------0--3-----3--0-----|-----------2-----2--------| 
D|-----0-----------------0--|--------3-----------3-----| 
A|--------------------------|-----3-----------------3--| 
E|--3-----------------------|--1-----------------------| 


      E  E  E  E  E  E  E  E     E  E  E  E  E  E  E  E 
E|--------------------------|--------------3-----------| 
B|--------------1-----------|--------1--4-----4--------| 
G|-----------2-----2--------|-----0--------------5-----| 
D|--------3-----------3-----|-----------------------5--| 
A|-----3-----------------3--|--3-----------------------| 
E|--1-----------------------|--------------------------| 


      E  E  E  E  E  E  E  E     E  E  E  E  E  E  E  E 
E|--------------------------|--------------1-----------| 
B|--------------3-----------|-----------3-----3--------| 
G|--------0--3-----3--0-----|--------3-----------3-----| 
D|-----0-----------------0--|-----3-----------------3--| 
A|--------------------------|--1-----------------------| 
E|--3-----------------------|--------------------------| 


      E  E  E  E  E  E  E  E     E  E  E  E  E  E  E  E 
E|--------------------------|--------------3-----------| 
B|--------------1-----------|--------1--4-----4--------| 
G|-----------2-----2--------|-----0--------------5-----| 
D|--------3-----------3-----|-----------------------5--| 
A|-----3-----------------3--|--3-----------------------| 
E|--1-----------------------|--------------------------| 


      E  E  E  E  E  E  E  E     E  E  E  E  E  E  E  E 
E|--------------------------|--------------------------| 
B|--------------------------|--------------3-----------| 
G|--------------3--0--------|--------0--3-----3--0-----| 
D|-----------5--------1-----|-----0-----------------0--| 
A|--------6--------------1--|--------------------------| 
E|-----6--------------------|--3-----------------------| 


      E  E  E  E  E  E  E  E     E  E  E  E  E  E  E  E 
E|--------------------------|--------------------------| 
B|--------------1-----------|--------1--4--3-----------| 
G|-----------2-----2--------|-----0-----------3-----0--| 
D|--------3-----------3-----|--------------------3-----| 
A|-----3-----------------3--|--3-----------------------| 
E|--1-----------------------|--------------------------| 


      E  E  E  E  E  E  E  E     E  E  E  E  E  E  E  E 
E|--------------------------|--------------------------| 
B|--------1--4--3-----------|--------1--4--3-----------| 
G|-----0-----------3-----0--|-----0-----------3-----0--| 
D|--------------------3-----|--------------------3-----| 
A|--3-----------------------|--3-----------------------| 
E|--------------------------|--------------------------| 


     E  E  E  E  E  E  E  E     T T H.           E.     
E|--------------------------|-----------------------|| 
B|--------1--4--4-----------|------1------------L---|| 
G|-----0-----------3-----0--|----0------------------|| 
D|--------------------3-----|-----------------------|| 
A|--3-----------------------|--3--------------------|| 
E|--------------------------|-----------------------|| 
  

cifra enviadasem correções
enviado porenviada por:tarikike
top 5 | malukah
top pop music
Outras músicas do artista letras do(a) Malukah
Top cifras »Top artistas »
Petaxxon Comunicação Online
Cifras.com.br - Melhor e mais completo site de cifras e tablaturas do Brasil
Mais de 1 milhão de acordes de músicas cadastradas desde 2003
As informações contidas no nosso site são colaborações de seus usuários e podem conter erros, sendo assim, não nos responsabilizamos sobre nenhuma destas.
close
menos
mais
close
Cor dos acordes:

Cor da letra:

 

save
close
close
 
redimensionar