Cifras e Tablaturas
Mamonas Assassinas

Mamonas Assassinas

Mundo animal

Ano: 2006
Album : Mamonas Assassinas ao Vivo

Cifras Cancelar Versão de Impressão Print

Mamonas Assassinas - Mundo animal

Tom: E

  • 0:00 / 0:00
  			MAMONAS ASSASSINAS 
Mundo Animal 
Intro::: E D A 
 
solinho do inicio da musica 
 
 
 
 
 
e|--------------------------------------------------------- 
B|------------------------------5--------5----------------- 
G|-----9-----9-----7-----7------5--------5----------------- 
D|-----9-----9-----7-----7--5-7-5-7--5-7-5-7--5--7--------- 
A|-7-7---7-7---5-5---5-5----------------------------------- 
E|--------------------------------------------------------- 
 
e|--------------------------------------------------------- 
B|------------------------------5--------5----------------- 
G|-----9-----9-----7-----7------5--------5----------------- 
D|-----9-----9-----7-----7--5-7-5-7--5-7-5----------------- 
A|-7-7---7-7---5-5---5-5----------------------------------- 
E|--------------------------------------------------------- 
 
 
 
ObS.: 
 
Deixar soar as cordas, escute a musica para vc pegar melhor, na musica msm os caras da umas puxadas, 
mais eu acho mais rox assim. VlwS  
 
``d(^_^)b'' 
 
 
Tablatura feita por::: 
 
<||_Lenon_Cristian_||> 

    	

enviado porenviado por: Lenon_Cristian
cifra enviadaCorrigida por: sem correções
logo top cifrasComente
ico música do artistaMúsicas deste artista
ico curtiuCurtiu?
ico destaqueDestaque
Petaxxon Comunicação Online

Cifras.com.br - Melhor e mais completo site de cifras e tablaturas do Brasil Mais de 1 milhão de acordes de músicas cadastradas desde 2003
As informações contidas no nosso site são colaborações de seus usuários e podem conter erros, sendo assim, não nos responsabilizamos sobre nenhuma destas.

close
menos
mais
close
Cor dos acordes:

Cor da letra:

close
Alinhar acordes a direita Alinhar acordes a esquerda Alinhar acordes em baixo Alinhar acordes no topo
close
  Mostrar todos os acordes Esconder acordes muito fáceis Esconder acordes fáceis Esconder acordes intermediários
redimensionar
glossário