Cifras e Tablaturas
Mamonas Assassinas

Mamonas Assassinas

Mundo Animal (intro e versos)

Cifras Cancelar Versão de Impressão Print

Mamonas Assassinas - Mundo Animal (intro e versos)

Tom: E

  • 0:00 / 0:00
  			 
Artista : Mamonas Assassinas  
Música  : Mundo Animal  
   
 
E|--------------------------------------------------------------------| 
B|--------------------------------------------------------------------| 
G|--------------------------------------------------------------------|   3 
D|---x--x--9---x--x--9----x--x--7---x--x--7---------------------------| vezes 
A|---x--x--7---x--x--7----x--x--5---x--x--5-------3---------3---------| 
E|--------------------------------------------3-5---5\--3-5---5\--3-5-| 
 
E|--------------------------------------------------------------------| 
B|--------------------------------------------------------------------| 
G|--------------------------------------------------------------------| 
D|---x--x--9---x--x--9----x--x--7---x--x--7---------------------------| 
A|---x--x--7---x--x--7----x--x--5---x--x--5-------3-------------------| 
E|--------------------------------------------3-5---5\--3-5-5\--------| 
 
 
Versos: 
 
       E          D         A 
E|-4-4-4-5-4--2-2-2-3-2--0-0-0-0---| 
B|-5-5-5-5-5--3-3-3-3-3--2-2-2-2---| 
G|-4-4-4-4-4--2-2-2-2-2--2-2-2-2---| 
D|-----------------------2-2-2-2---| 
A|---------------------------------| 
E|---------------------------------| 
 
 
 
 

    	

enviado porenviado por: CDF da guitarra
cifra enviadaCorrigida por: sem correções
logo top cifrasComente
ico música do artistaMúsicas deste artista
ico curtiuCurtiu?
ico destaqueDestaque
Petaxxon Comunicação Online

Cifras.com.br - Melhor e mais completo site de cifras e tablaturas do Brasil Mais de 1 milhão de acordes de músicas cadastradas desde 2003
As informações contidas no nosso site são colaborações de seus usuários e podem conter erros, sendo assim, não nos responsabilizamos sobre nenhuma destas.

close
menos
mais
close
Cor dos acordes:

Cor da letra:

close
Alinhar acordes a direita Alinhar acordes a esquerda Alinhar acordes em baixo Alinhar acordes no topo
close
  Mostrar todos os acordes Esconder acordes muito fáceis Esconder acordes fáceis Esconder acordes intermediários
redimensionar
glossário