Cifras e Tablaturas
Mamoru Miyano

Mamoru Miyano

How Close You Are (acoustic)

Cifras Cancelar Versão de Impressão
cifras

Mamoru Miyano - How Close You Are (acoustic)

fixar na tela  
Exibindo: vídeo-aula ver clipes redimensionar

Tom:

  
Intro 
e|-----------------|--------------------|--------------|----------------------| 
B|-------0h1--1----|-1------3--0--------|---0h2---2----|-1--0-----------------| 
G|-2-----0h2--2----|-2------------0-----|---0h3---3----|-------0----------0---| 
D|-2---------------|-----------------0--|--------------|----------2--0--2---2-| 
A|----0---------0--|-----0--------------|--------------|----------------------| 
E|-----------------|--------------------|-1----------0-|-------------3--------| 

verse 1 x2 
e|---------------------|------------------------|----------------------| 
B|----------0--1-----1-|------------1---3h5-----|----------------------| 
G|-------2--------2----|-----2-----2------------|-2-------2-------2----| 
D|----2----------------|------------------------|------x--------x------| 
A|-0-------------------|--0------0--------------|----------------------| 
E|---------------------|----------------------0-|-1--1-------1-------1-| 

e|-----------------0-----|--1--------1--1-----1--1-|-----1-----0--0----------| 
B|---------0--1----0-----|--------1--------1-------|---1-------1-----------1-| 
G|-----2---0--2----0---2-|-----2--------2----------|--------2--------x--2----| 
D|---3-------------------|--0----------------------|-0---------------0-------| 
A|-----------------------|-------------------------|-------------------------| 
E|-1---------------0-----|-------------------------|-------------------------| 

e|------------------------|------------------------|--1--------1--1-----1--1-| 
B|-3--------3--3-----3--3-|------3------1--1-------|--------1--------1-------| 
G|-------2--------2-------|----2--------------x----|-----2--------2----------| 
D|----2--------2----------|---------2---------2----|--0----------------------| 
A|-0----------------------|--0-------------------0-|-------------------------| 
E|------------------------|------------------------|-------------------------| 

e|-----1------0--0-------------|---------------------------|  
B|---1--------1--------------1-|-3------3----------1---(1)-|  
G|--------2---------x--0--2----|-2------2------0h2-----(2)-|    
D|-0----------------2----------|----3--------3---------(3)-|  
A|-----------------------------|---------------------------|  
E|-----------------------------|-1---------1-----------(1)-|  

Bridge 
e|---------------------------|-----------------------0------| 
B|-3-----------3----------1--|-(1)-----------1-------1------| 
G|-2-----------2--------2----|-(2)-----------2-------2------| 
D|--------3-----------3------|-(3)--------------------------| 
A|---------------------------|------------------------------| 
E|-1----------------1--------|-(1)--1----1-------1--------3-| 

verse 2 x2 
e|--------------------3------0-|-1-----0----------------|-------------------3-----0-| 
B|--------1---------1-----x----|----------3-----1-------|-------1---------1----x----| 
G|-----------0----0-------0----|----------0-----0--x----|----------2----2------2----| 
D|----2------------------------|----2--------------2--2-|----2----------------------| 
A|-3------------3--------------|-3-----------3----------|-0-----------0-------------| 
E|-----------------------------|------------------------|---------------------------| 

e|-1-----0---------------|-------0--------0--------0-|--------0---0----------| 
B|----------3-----1------|----3--------3--3-----3----|-----3------3-----x----| 
G|----------2-----2--x---|--0----------0--0-----0----|------------0-----0--0-| 
D|----2--------------2p0-|----------2--------2-------|--------2------2-------| 
A|-0-----------0---------|---------------------------|------------x----------| 
E|-----------------------|-0--------------x----------|-0---------------------| 

e|-------0--------0--------1-|----0--------------------|  
B|----3--------3--3-----3----|----1------3------1------|  
G|--0----------0--0-----0----|----0------0------0--x---|   
D|----------0--------0-------|----0------0------0--0h2-|  
A|---------------------------|-------------------------|  
E|-3--------------x----------|--3-----3------3---------|  

Outro 
e|----0---------------x----|-------------0----------|-------------1-----------| 
B|----1-----3------1--0--1-|-1--------1-----------1-|-3--------1------------1-| 
G|----0-----0----0----0----|-------2-----------2----|-------2------------2----| 
D|-------0-----0-----------|----3-----------3-------|----3------------3-------| 
A|-------------------------|------------------------|-------------------------| 
E|-3-----------------------|-1----------------------|-1-----------1-----------| 

e|----0---------------x----|-------------0----------|-------------1-----------| 
B|----1-----3------1--0--1-|-1--------1-----------1-|-3--------1------------1-| 
G|----0-----0----0----0----|-------2-----------2----|-------2------------2----| 
D|-------0-----0-----------|----3-----------3-------|----3------------3-------| 
A|-------------------------|------------------------|-------------------------| 
E|-3-----------------------|-1----------------------|-1-----------1-----------| 

e|-3-----------------------|-------3---------------------|----------------------| 
B|-0-----0--1--1-----0---1-|-----0-------0--1-----------0|-------0--1-----1-----| 
G|----0-----------0----0---|---0------0--------------0---|-2-----0--2-----2-----| 
D|-------------------------|----------------------0------|-2--------------------| 
A|-------------------------|-----------------------------|----0---------------0-| 
E|-3-----------------------|-3-----------------3---------|----------------------| 

e|-----------------------| 
B|-1------3--0---------1-| 
G|-2------------0------2-| 
D|-----------------0---3-| 
A|-----0-----------------| 
E|---------------------1-| 


************************************ 

| h    Hammer-on 
| x    Dead note 
| (n)  Ghost note 
| p    Pull-off 

************************************ 
  

top 5 | mamoru miyano
top rock'n roll
Outras músicas do artista letras do(a) Mamoru Miyano
Top cifras »Top artistas »
Petaxxon Comunicação Online
Cifras.com.br - Melhor e mais completo site de cifras e tablaturas do Brasil
Mais de 1 milhão de acordes de músicas cadastradas desde 2003
As informações contidas no nosso site são colaborações de seus usuários e podem conter erros, sendo assim, não nos responsabilizamos sobre nenhuma destas.
close
menos
mais
close
Cor dos acordes:

Cor da letra:

 

save
close
close
 
redimensionar