Cifras e Tablaturas
Cifras Cancelar Versão de Impressão
cifras

Manchester Orchestra - The Parts

fixar na tela  
Exibindo: vídeo-aula ver clipes redimensionar
  
Intro 

e|-------------------------------| 
B|-------------------------------| 
G|--1-1-1-1-1-1-1-1-1-1-1--------| 
D|-------------------------------| x 4 
A|------------------0-0-0-0h2----| 
E|-0-0-0-0-0-0-0-0-0-------------| 

Verse 

e|-------------------------------| 
B|-------------------------------| 
G|--1-1-1-1-1-1-1-1-1-1-1--------| 
D|-------------------------------|  
A|------------------0-0-0-0h2----| 
E|-0-0-0-0-0-0-0-0-0-------------| 

Turn off the alarm 

e|-------------------------------| 
B|-------------------------------| 
G|--1-1-1-1-1-1-1-1-1-1-1--------| 
D|-------------------------------|  
A|------------------0-0-0-0h2----| 
E|-0-0-0-0-0-0-0-0-0-------------| 

Wonder where you are 

e|-------------------------------| 
B|-------------------------------| 
G|--1-1-1-1-1-1-1-1-1-1-1--------| 
D|-------------------------------|  
A|------------------0-0-0-0h2----| 
E|-0-0-0-0-0-0-0-0-0-------------| 

I'd be a page in your book if you let me 

e|-------------------------------| 
B|-------------------------------| 
G|--1-1-1-1-1-1-1-1-1-1-1--------| 
D|-------------------------------|  
A|------------------0-0-0-0h2----| 
E|-0-0-0-0-0-0-0-0-0-------------| 

(no lyrics) 

e|-------------------------------| 
B|-------------------------------| 
G|--1-1-1-1-1-1-1-1-1-1-1--------| 
D|-------------------------------|  
A|------------------0-0-0-0h2----| 
E|-0-0-0-0-0-0-0-0-0-------------| 

Miles and miles of drones 

e|-------------------------------| 
B|-------------------------------| 
G|--1-1-1-1-1-1-1-1-1-1-1--------| 
D|-------------------------------|  
A|------------------0-0-0-0h2----| 
E|-0-0-0-0-0-0-0-0-0-------------| 

Stain in a coffee cup 

e|-------------------------------| 
B|-------------------------------| 
G|--1-1-1-1-1-1-1-1-1-1-1--------| 
D|-------------------------------|  
A|------------------0-0-0-0h2----| 
E|-0-0-0-0-0-0-0-0-0-------------| 

The truth will start to creep in if you let it 

Chorus 

e|-------------------------------| 
B|-------------------------------| 
G|---2-2-2-2-2-2-2-2-2-2-2-2-----| 
D|-------------------------------| x 3 
A|--0-0-0-0-0-0-0-0-0-0-0-0------| 
E|-------------------------------| 

I wanted to know each part 

e|-------------------------------| 
B|-------------------------------| 
G|---2-2-2-2-2-2-2-2-2-2-2-------| 
D|-------------------------------| x 3 
A|--0-0-0-0-0-0-0-0-0-0-0--------| 
E|-------------------------------| 

Want to know each part of you 

e|-------------------------------| 
B|-------------------------------| 
G|--1-1-1-1-1-1-1-1-1-1-1--------| 
D|-------------------------------| x 2 
A|------------------0-0-0-0h2----| 
E|-0-0-0-0-0-0-0-0-0-------------| 

Verse 

e|-------------------------------| 
B|-------------------------------| 
G|--1-1-1-1-1-1-1-1-1-1-1--------| 
D|-------------------------------|  
A|------------------0-0-0-0h2----| 
E|-0-0-0-0-0-0-0-0-0-------------| 

A yellow SUV 

e|-------------------------------| 
B|-------------------------------| 
G|--1-1-1-1-1-1-1-1-1-1-1--------| 
D|-------------------------------|  
A|------------------0-0-0-0h2----| 
E|-0-0-0-0-0-0-0-0-0-------------| 

Britney Spears on the ceiling 

e|-------------------------------| 
B|-------------------------------| 
G|--1-1-1-1-1-1-1-1-1-1-1--------| 
D|-------------------------------|  
A|------------------0-0-0-0h2----| 
E|-0-0-0-0-0-0-0-0-0-------------| 

You'd look my way but you weren't talking to me 

e|-------------------------------| 
B|-------------------------------| 
G|--1-1-1-1-1-1-1-1-1-1-1--------| 
D|-------------------------------|  
A|------------------0-0-0-0h2----| 
E|-0-0-0-0-0-0-0-0-0-------------| 

(no lyrics) 

e|-------------------------------| 
B|-------------------------------| 
G|--1-1-1-1-1-1-1-1-1-1-1--------| 
D|-------------------------------|  
A|------------------0-0-0-0h2----| 
E|-0-0-0-0-0-0-0-0-0-------------| 

Pulling up to Rob's 

e|-------------------------------| 
B|-------------------------------| 
G|--1-1-1-1-1-1-1-1-1-1-1--------| 
D|-------------------------------|  
A|------------------0-0-0-0h2----| 
E|-0-0-0-0-0-0-0-0-0-------------| 

some Camel Lights, Averso 

e|-------------------------------| 
B|-------------------------------| 
G|--1-1-1-1-1-1-1-1-1-1-1--------| 
D|-------------------------------|  
A|------------------0-0-0-0h2----| 
E|-0-0-0-0-0-0-0-0-0-------------| 

Your tan skin felt like universal envy 

Chorus 

e|-------------------------------| 
B|-------------------------------| 
G|---2-2-2-2-2-2-2-2-2-2-2-2-----| 
D|-------------------------------| x 3 
A|--0-0-0-0-0-0-0-0-0-0-0-0------| 
E|-------------------------------| 

And I wanted to know each part 

e|-------------------------------| 
B|-------------------------------| 
G|---2-2-2-2-2-2-2-2-2-2-2-------| 
D|-------------------------------| x 3 
A|--0-0-0-0-0-0-0-0-0-0-0--------| 
E|-------------------------------| 

Want to know each part of you 

e|-------------------------------| 
B|-------------------------------| 
G|--1-1-1-1-1-1-1-1-1-1-1--------| 
D|-------------------------------| x 2 
A|------------------0-0-0-0h2----| 
E|-0-0-0-0-0-0-0-0-0-------------| 

Verse 

e|-------------------------------| 
B|-------------------------------| 
G|--1-1-1-1-1-1-1-1-1-1-1--------| 
D|-------------------------------|  
A|------------------0-0-0-0h2----| 
E|-0-0-0-0-0-0-0-0-0-------------| 

Give it thirteen years 

e|-------------------------------| 
B|-------------------------------| 
G|--1-1-1-1-1-1-1-1-1-1-1--------| 
D|-------------------------------|  
A|------------------0-0-0-0h2----| 
E|-0-0-0-0-0-0-0-0-0-------------| 

Both your legs up, you're crying 

e|-------------------------------| 
B|-------------------------------| 
G|--1-1-1-1-1-1-1-1-1-1-1--------| 
D|-------------------------------|  
A|------------------0-0-0-0h2----| 
E|-0-0-0-0-0-0-0-0-0-------------| 

Trying to push a life out from your belly 

e|-------------------------------| 
B|-------------------------------| 
G|--1-1-1-1-1-1-1-1-1-1-1--------| 
D|-------------------------------|  
A|------------------0-0-0-0h2----| 
E|-0-0-0-0-0-0-0-0-0-------------| 

(no lyrics) 

e|-------------------------------| 
B|-------------------------------| 
G|--1-1-1-1-1-1-1-1-1-1-1--------| 
D|-------------------------------|  
A|------------------0-0-0-0h2----| 
E|-0-0-0-0-0-0-0-0-0-------------| 

I'm a water boy, 

e|-------------------------------| 
B|-------------------------------| 
G|--1-1-1-1-1-1-1-1-1-1-1--------| 
D|-------------------------------|  
A|------------------0-0-0-0h2----| 
E|-0-0-0-0-0-0-0-0-0-------------| 

overwhelmed by the screaming 

e|-------------------------------| 
B|-------------------------------| 
G|--1-1-1-1-1-1-1-1-1-1-1--------| 
D|-------------------------------|  
A|------------------0-0-0-0h2----| 
E|-0-0-0-0-0-0-0-0-0-------------| 

Your clenched teeth, nails dug deep into my meaning 

Chorus 

e|-------------------------------| 
B|-------------------------------| 
G|---2-2-2-2-2-2-2-2-2-2-2-2-----| 
D|-------------------------------| x 3 
A|--0-0-0-0-0-0-0-0-0-0-0-0------| 
E|-------------------------------| 

And I still want to know each part 

e|-------------------------------| 
B|-------------------------------| 
G|---2-2-2-2-2-2-2-2-2-2-2-------| 
D|-------------------------------| x 3 
A|--0-0-0-0-0-0-0-0-0-0-0--------| 
E|-------------------------------| 

Want to know each part of you 

e|-------------------------------| 
B|-------------------------------| 
G|--1-1-1-1-1-1-1-1-1-1-1-1------| 
D|-------------------------------| 
A|-------------------------------| 
E|-0-0-0-0-0-0-0-0-0-0-0-0-------| 

e|-------------------------------| 
B|-------------------------------| 
G|---2-2-2-2-2-2-2-2-2-2-2-2-----| 
D|-------------------------------| x 3 
A|--0-0-0-0-0-0-0-0-0-0-0-0------| 
E|-------------------------------| 

Yeah I still want to know each part 

e|-------------------------------| 
B|-------------------------------| 
G|---2-2-2-2-2-2-2-2-2-2-2-------| 
D|-------------------------------| x 3 
A|--0-0-0-0-0-0-0-0-0-0-0--------| 
E|-------------------------------| 

Want to know each part of you 

e|-------------------------------| 
B|-------------------------------| 
G|--1-1-1-1-1-1-1-1-1-1-1--------| 
D|-------------------------------| x 2 
A|------------------0-0-0-0h2----| 
E|-0-0-0-0-0-0-0-0-0-------------| 

Bridge 

e|-------------------------------| 
B|-------------------------------| 
G|--1-1-1-1-1-1-1-1-1-1-1--------| 
D|-------------------------------| 
A|------------------0-0-0-0h2----| 
E|-0-0-0-0-0-0-0-0-0-------------| 

(no lyrics) 

e|-------------------------------| 
B|-------------------------------| 
G|--1-1-1-1-1-1-1-1-1-1-1--------| 
D|-------------------------------| 
A|------------------0-0-0-0h2----| 
E|-0-0-0-0-0-0-0-0-0-------------| 

Who? 

e|-------------------------------| 
B|-------------------------------| 
G|--1-1-1-1-1-1-1-1-1-1-1--------| 
D|-------------------------------| 
A|------------------0-0-0-0h2----| 
E|-0-0-0-0-0-0-0-0-0-------------| 

You 

e|-------------------------------| 
B|-------------------------------| 
G|--1-1-1-1-1-1-1-1-1-1-1--------| 
D|-------------------------------| 
A|------------------0-0-0-0h2----| 
E|-0-0-0-0-0-0-0-0-0-------------| 

You 

Chorus 

e|-------------------------------| 
B|-------------------------------| 
G|---2-2-2-2-2-2-2-2-2-2-2-2-----| 
D|-------------------------------| x 3 
A|--0-0-0-0-0-0-0-0-0-0-0-0------| 
E|-------------------------------| 

Yeah I still want to know each part 

e|-------------------------------| 
B|-------------------------------| 
G|---2-2-2-2-2-2-2-2-2-2-2-------| 
D|-------------------------------| x 3 
A|--0-0-0-0-0-0-0-0-0-0-0--------| 
E|-------------------------------| 

Want to know each part of you 

e|-------------------------------| 
B|-------------------------------| 
G|--1-1-1-1-1-1-1-1-1-1-1--------| 
D|-------------------------------| 
A|------------------0-0-0-0------| 
E|-0-0-0-0-0-0-0-0-0-------------| 

(End with light strum of bottom four strings of E) 


Lyrics: 

Turn off the alarm 
Wonder where you are 
I'd be a page in your book if you let me 

Miles and miles of drones 
Stain in a coffee cup 
The truth will start to creep in if you let it 

I wanted to know each part 
Want to know each part of you 

A yellow SUV 
Britney Spears on the ceiling 
You'd look my way but you weren't talking to me 

Pulling up to Rob's, 
Some Camel Lights, Averso 
Your tan skin felt like universal envy 

And I wanted to know each part 
Want to know each part of you 

Give it thirteen years 
Both your legs up, you're crying 
Trying to push a life out from your belly 

I'm a water boy, 
overwhelmed by the screaming 
Your clenched teeth, nails dug deep into my meaning 

And I still want to know each part 
Want to know each part of you 

Yeah I still want to know each part 
Want to know each part of you 

Who? 
You 
You 

Yeah I still want to know each part 
Want to know each part of you 
************************************ 
| h   Hammer-on 
************************************ 
  

cifra enviadasem correções
enviado porenviada por:edsooliveira
top 5 | manchester orchestra
top rock alternativo
Outras músicas do artista letras do(a) Manchester Orchestra
Top cifras »Top artistas »
Petaxxon Comunicação Online
Cifras.com.br - Melhor e mais completo site de cifras e tablaturas do Brasil
Mais de 1 milhão de acordes de músicas cadastradas desde 2003
As informações contidas no nosso site são colaborações de seus usuários e podem conter erros, sendo assim, não nos responsabilizamos sobre nenhuma destas.
close
menos
mais
close
Cor dos acordes:

Cor da letra:

 

save
close
close
 
redimensionar