Cifras e Tablaturas
Manic Street Preachers

Manic Street Preachers

Anorexic Rodin

Cifras Cancelar Versão de Impressão
cifras

Manic Street Preachers - Anorexic Rodin

fixar na tela  
Exibindo: vídeo-aula ver clipes redimensionar
  
Intro 
         PM 
e|-----7-----------------------------| 
B|-----8-----------------------------| 
G|-----9-----------------------------| 
D|-----9-----------------------------| 
A|-7-777-7-7-7-7-7-7-7-7-7-7-7-7-7---| 
E|-0-770-0-0-0-0-0-0-0-0-0-0-0-0-0---| 


Verse 
Heavily palm-muted throughout  

   Em              Bm              C                 G 
e|------------------------------------------------------------------| 
B|------------------------------------------------------------------| 
G|------------------------------------------------------------------| 
D|------------------------------------------------------------------| 
A|-7-7-7-7-7-7-7-7-9-9-9-9-9-9-9-9-10101010101010105-5-5-5-5-5-5-5--| 
E|-0-0-0-0-0-0-0-0-7-7-7-7-7-7-7-7-8-8-8-8-8-8-8-8-3-3-3-3-3-3-3-3--| 
   A beauty        in the          darkness of your eyes 
   You were the    avatar          the           conduit  


   Am            Bm     C 
e|-------------------------------------------------------------------| 
B|-------------------------------------------------------------------| 
G|-------------------------------------------------------------------| 
D|--------------------------0----5-5-5-5-5-5-5-5---------------------| 
A|---------0--2--3p-2--2--3---2--3-3-3-3-3-3-3-3---------------------| 
E|-------------------------------------------------------------------| 
   Feel the beauty kept locked inside 
   The    hardest thing you ever did  
   
   D                                               Em 
e|-------------------------------------------------------------------------------------------------| 
B|-------------------------------------------------------------------------------------------------| 
G|-------------------------------------------------------------------------------------------------| 
D|-------------------------------------------------9--9--9--9--9--9--9--9--9--9--9--9--9--9--9--9--| 
A|-12-12-12-12-12-12-12-12-12-12-12-12-12-12-12-12-7--7--7--7--7--7--7--7--7--7--7--7--7--7--7--7--| 
E|-10-10-10-10-10-10-10-10-10-10-10-10-10-10-10-10-0--0--0--0--0--0--0--0--0--0--0--0--0--0--0--0--| 
   No, not here to be loved                        Believed in the power and in your blood 

   C                                               G 
e|-------------------------------------------------------------------------------------------------| 
B|-------------------------------------------------------------------------------------------------| 
G|-------------------------------------------------------------------------------------------------| 
D|-------------------------------------------------------------------------------------------------| 
A|-10-10-10-10-10-10-10-10-10-10-10-10-10-10-10-10-5--5--5--5--5--5--5--5--5--5--5--5--5--5--5--5--| 
E|-8--8--8--8--8--8--8--8--8--8--8--8--8--8--8--8--3--3--3--3--3--3--3--3--3--3--3--3--3--3--3--3--| 
   No, not here to be loved                        Believed in the power and in your blood 

   D                                               Em 
e|-------------------------------------------------------------------------------------------------| 
B|-------------------------------------------------------------------------------------------------| 
G|-------------------------------------------------------------------------------------------------| 
D|-------------------------------------------------9--9--9--9--9--9--9--9--9--9--9--9--9--9--9--9--| 
A|-12-12-12-12-12-12-12-12-12-12-12-12-12-12-12-12-7--7--7--7--7--7--7--7--7--7--7--7--7--7--7--7--| 
E|-10-10-10-10-10-10-10-10-10-10-10-10-10-10-10-10-0--0--0--0--0--0--0--0--0--0--0--0--0--0--0--0--| 
   No not here to be loved                         Believed in the power and in your blood 

   C                                               D 
e|-------------------------------------------------------------------------------------------------| 
B|-------------------------------------------------------------------------------------------------| 
G|-------------------------------------------------------------------------------------------------| 
D|-------------------------------------------------------------------------------------------------| 
A|-10-10-10-10-10-10-10-10-10-10-10-10-10-10-10-10-12-12-12-12-12-12-12-12-12-12-12-12-12-12-12-12-| 
E|-8--8--8--8--8--8--8--8--8--8--8--8--8--8--8--8--10-10-10-10-10-10-10-10-10-10-10-10-10-10-10-10-| 
   No not here to be loved                         Believed in the power and in your blood 

Keep chugging on that D power chord and then the band enters: 

   Em                       Bm 
e|---------------------------------------------------| 
B|--8--8--7--7---------------------------------------| 
G|--------------9--9--------7--7---------------------| 
D|--------------------9--9--------10-10--9--9--7--7--| 
A|---------------------------------------------------| 
E|---------------------------------------------------| 

Chorus 
    Em                Bm              Em            Bm 
e|---------------------------------------------------------------| 
B|--8---------------------------------8--------------------------| 
G|--9-----------------7---------------9-------------7------------| 
D|--9-----------------9---------------9-------------9------------| 
A|--7-----------------9---------------7-------------9------------| 
E|--------------------7-----------------------------7------------| 
    A perfect echoes of your youth    Like an ano-  rexic Rodin 

      C             G                 C              G 
e|---------------------------------------------------------------| 
B|---------------------------------------------------------------| 
G|--9---------------4-----------------9--------------4-----------| 
D|--10--------------5-----------------10-------------5-----------| 
A|--10--------------5-----------------10-------------5-----------| 
E|--8---------------3-----------------8--------------3-----------| 
You re-enact the    Tet Offensive It's why you ended so defensive 

   Em                Bm              Em            Bm 
e|---------------------------------------------------------------| 
B|--8---------------------------------8--------------------------| 
G|--9-----------------7---------------9-------------7------------| 
D|--9-----------------9---------------9-------------9------------| 
A|--7-----------------9---------------7-------------9------------| 
E|--------------------7-----------------------------7------------| 
    A perfect echoes of your youth    Like an ano-  rexic Rodin 

    C               G                 C              D             D# 
e|---------------------------------------------------------------|-----------| 
B|---------------------------------------------------------------|-----------| 
G|--9---------------4-----------------9--------------------------|-----------| 
D|--10--------------5-----------------10-------------12----------|-13--13\---| 
A|--10--------------5-----------------10-------------12----------|-13--13\---| 
E|--8---------------3-----------------8--------------10----------|-11--11\---| 
You re-enact the    Tet Offensive It's why you ended so defensive 


Verse 
Heavily palm-muted throughout  

   Em              Bm              C                 G 
e|------------------------------------------------------------------| 
B|------------------------------------------------------------------| 
G|------------------------------------------------------------------| 
D|------------------------------------------------------------------| 
A|-7-7-7-7-7-7-7-7-9-9-9-9-9-9-9-9-10101010101010105-5-5-5-5-5-5-5--| 
E|-0-0-0-0-0-0-0-0-7-7-7-7-7-7-7-7-8-8-8-8-8-8-8-8-3-3-3-3-3-3-3-3--| 
   A beauty        in the          darkness of your eyes 
   You were the    avatar          the           conduit  


   Am            Bm     C 
e|-------------------------------------------------------------------| 
B|-------------------------------------------------------------------| 
G|-------------------------------------------------------------------| 
D|--------------------------0----5-5-5-5-5-5-5-5---------------------| 
A|---------0--2--3p-2--2--3---2--3-3-3-3-3-3-3-3---------------------| 
E|-------------------------------------------------------------------| 
   Feel the beauty kept locked inside 
   The    hardest thing you ever did  
   
   D                                               Em 
e|-------------------------------------------------------------------------------------------------| 
B|-------------------------------------------------------------------------------------------------| 
G|-------------------------------------------------------------------------------------------------| 
D|-------------------------------------------------9--9--9--9--9--9--9--9--9--9--9--9--9--9--9--9--| 
A|-12-12-12-12-12-12-12-12-12-12-12-12-12-12-12-12-7--7--7--7--7--7--7--7--7--7--7--7--7--7--7--7--| 
E|-10-10-10-10-10-10-10-10-10-10-10-10-10-10-10-10-0--0--0--0--0--0--0--0--0--0--0--0--0--0--0--0--| 
   No, not here to be loved                        Believed in the power and in your blood 

   C                                               G 
e|-------------------------------------------------------------------------------------------------| 
B|-------------------------------------------------------------------------------------------------| 
G|-------------------------------------------------------------------------------------------------| 
D|-------------------------------------------------------------------------------------------------| 
A|-10-10-10-10-10-10-10-10-10-10-10-10-10-10-10-10-5--5--5--5--5--5--5--5--5--5--5--5--5--5--5--5--| 
E|-8--8--8--8--8--8--8--8--8--8--8--8--8--8--8--8--3--3--3--3--3--3--3--3--3--3--3--3--3--3--3--3--| 
   No, not here to be loved                        Believed in the power and in your blood 

   D                                               Em 
e|-------------------------------------------------------------------------------------------------| 
B|-------------------------------------------------------------------------------------------------| 
G|-------------------------------------------------------------------------------------------------| 
D|-------------------------------------------------9--9--9--9--9--9--9--9--9--9--9--9--9--9--9--9--| 
A|-12-12-12-12-12-12-12-12-12-12-12-12-12-12-12-12-7--7--7--7--7--7--7--7--7--7--7--7--7--7--7--7--| 
E|-10-10-10-10-10-10-10-10-10-10-10-10-10-10-10-10-0--0--0--0--0--0--0--0--0--0--0--0--0--0--0--0--| 
   No not here to be loved                         Believed in the power and in your blood 

   C                                               D 
e|-------------------------------------------------------------------------------------------------| 
B|-------------------------------------------------------------------------------------------------| 
G|-------------------------------------------------------------------------------------------------| 
D|-------------------------------------------------------------------------------------------------| 
A|-10-10-10-10-10-10-10-10-10-10-10-10-10-10-10-10-12-12-12-12-12-12-12-12-12-12-12-12-12-12-12-12-| 
E|-8--8--8--8--8--8--8--8--8--8--8--8--8--8--8--8--10-10-10-10-10-10-10-10-10-10-10-10-10-10-10-10-| 
   No not here to be loved                         Believed in the power and in your blood 

Keep chugging on that D power chord and then the band enters: 

   Em                       Bm 
e|---------------------------------------------------| 
B|--8--8--7--7---------------------------------------| 
G|--------------9--9--------7--7---------------------| 
D|--------------------9--9--------10-10--9--9--7--7--| 
A|---------------------------------------------------| 
E|---------------------------------------------------| 

Chorus 
    Em                Bm              Em            Bm 
e|---------------------------------------------------------------| 
B|--8---------------------------------8--------------------------| 
G|--9-----------------7---------------9-------------7------------| 
D|--9-----------------9---------------9-------------9------------| 
A|--7-----------------9---------------7-------------9------------| 
E|--------------------7-----------------------------7------------| 
    A perfect echoes of your youth    Like an ano-  rexic Rodin 

      C             G                 C              G 
e|---------------------------------------------------------------| 
B|---------------------------------------------------------------| 
G|--9---------------4-----------------9--------------4-----------| 
D|--10--------------5-----------------10-------------5-----------| 
A|--10--------------5-----------------10-------------5-----------| 
E|--8---------------3-----------------8--------------3-----------| 
You re-enact the    Tet Offensive It's why you ended so defensive 

   Em                Bm              Em            Bm 
e|---------------------------------------------------------------| 
B|--8---------------------------------8--------------------------| 
G|--9-----------------7---------------9-------------7------------| 
D|--9-----------------9---------------9-------------9------------| 
A|--7-----------------9---------------7-------------9------------| 
E|--------------------7-----------------------------7------------| 
    A perfect echoes of your youth    Like an ano-  rexic Rodin 

    C               G                 C              D             D# 
e|---------------------------------------------------------------|-----------| 
B|---------------------------------------------------------------|-----------| 
G|--9---------------4-----------------9--------------------------|-----------| 
D|--10--------------5-----------------10-------------12----------|-13--13\---| 
A|--10--------------5-----------------10-------------12----------|-13--13\---| 
E|--8---------------3-----------------8--------------10----------|-11--11\---| 
You re-enact the    Tet Offensive It's why you ended so defensive 


The endgame's slowly dissolving 
The continuation of your planning 
It's here to stay, it is here for good 
But it's never gonna hide the truth 

No, not here to be loved 
Believed in the power and in your blood 
No, not here to be loved 
Believed in the power and in your blood 

A perfect echoes of your youth 
Like an anorexic Rodin 
You re-enact the Tet Offensive 
It's why you ended so defensive 
A perfect echoes of your youth 
Like an anorexic Rodin 
You re-enact the Tet Offensive 
It's why you ended so defensive 


To end, play the first part of the verse and finally ending on the C chord:  

   Em                              Em              Bm              C                 G 
e|-7-----------------------------|------------------------------------------------------------------| 
B|-8-----------------------------|------------------------------------------------------------------| 
G|-9-----------------------------|------------------------------------------------------------------| 
D|-9-----------------------------|------------------------------------------------------------------| 
A|-7-7-7-7-7-7-7-7-7-7-7-7-7-7-7-|-7-7-7-7-7-7-7-7-9-9-9-9-9-9-9-9-10101010101010105-5-5-5-5-5-5-5--| 
E|-0-0-0-0-0-0-0-0-0-0-0-0-0-0-0-|-0-0-0-0-0-0-0-0-7-7-7-7-7-7-7-7-8-8-8-8-8-8-8-8-3-3-3-3-3-3-3-3--| 
                                   A beauty in the darkness of your eyes 

   Am         Bm                 C 
e|-------------------------------------------------------------------| 
B|-------------------------------5-----------------------------------| 
G|-------------------------------5-----------------------------------| 
D|--------------------------0----5-----------------------------------| 
A|---------0--2--3p-2--2--3---2--3-----------------------------------| 
E|-------------------------------------------------------------------| 
   Feel the beauty kept locked inside 



************************************ 

| PM  Palm mute 
| p   Pull-off 
| \   Slide down 

************************************ 
  

cifra enviadasem correções
enviado porenviada por:joaoewerton
top 5 | manic street preachers
top
Outras músicas do artista letras do(a) Manic Street Preachers
Top cifras »Top artistas »
Petaxxon Comunicação Online
Cifras.com.br - Melhor e mais completo site de cifras e tablaturas do Brasil
Mais de 1 milhão de acordes de músicas cadastradas desde 2003
As informações contidas no nosso site são colaborações de seus usuários e podem conter erros, sendo assim, não nos responsabilizamos sobre nenhuma destas.
close
menos
mais
close
Cor dos acordes:

Cor da letra:

 

save
close
close
 
redimensionar