Cifras e Tablaturas
Manic Street Preachers

Manic Street Preachers

Distractions

Cifras Cancelar Versão de Impressão
cifras

Manic Street Preachers - Distractions

fixar na tela  
Exibindo: vídeo-aula ver clipes redimensionar
  
Intro 
  D 
e|------------------------------|--------------------------------| 
B|------------------------------|--------------------------------| 
G|------------------------------|--------------------------------| 
D|---------12-12----------12-12-|---------12-12--12-12--12-12-12-| 
A|---------12-12----------12-12-|---------12-12--12-12--12-12-12-| 
E|-0-0h10--10-10--0-0h10--10-10-|-0-0h10--10-10--10-10--10-10-10-| 

  A                                               G 
e|------------------------|----------------------|------------------------|----------------------| 
B|------------------------|----------------------|------------------------|----------------------| 
G|------------------------|----------------------|------------------------|----------------------| 
D|--------7-7---------7-7-|--------7-7--7--7-7-7-|--------5-5---------5-5-|--------5-5--5--5-5-5-| 
A|--------7-7---------7-7-|--------7-7--7--7-7-7-|--------5-5---------5-5-|--------5-5--5--5-5-5-| 
E|-0-0h5--5-5--0-0h5--5-5-|-0-0h5--5-5--5--5-5-5-|-0-0h3--3-3--0-0h3--3-3-|-0-0h3--3-3--3--3-3-3-| 

  F#m                      A 
e|------------------------|-------------------| 
B|------------------------|-------------------| 
G|------------------------|-------------------| 
D|--------4-4---------4-4-|-7--7-7--7-7-7-7-7-| 
A|--------4-4---------4-4-|-7--7-7--7-7-7-7-7-| 
E|-0-0h2--2-2--0-0h2--2-2-|-5--5-5--5-5-5-5-5-| 


Verse 
  D 
e|------------------------------|--------------------------------| 
B|------------------------------|--------------------------------| 
G|------------------------------|--------------------------------| 
D|---------12-12----------12-12-|---------12-12--12-12--12-12-12-| 
A|---------12-12----------12-12-|---------12-12--12-12--12-12-12-| 
E|-0-0h10--10-10--0-0h10--10-10-|-0-0h10--10-10--10-10--10-10-10-| 

  A                                               G 
e|------------------------|----------------------|------------------------|----------------------| 
B|------------------------|----------------------|------------------------|----------------------| 
G|------------------------|----------------------|------------------------|----------------------| 
D|--------7-7---------7-7-|--------7-7--7--7-7-7-|--------5-5---------5-5-|--------5-5--5--5-5-5-| 
A|--------7-7---------7-7-|--------7-7--7--7-7-7-|--------5-5---------5-5-|--------5-5--5--5-5-5-| 
E|-0-0h5--5-5--0-0h5--5-5-|-0-0h5--5-5--5--5-5-5-|-0-0h3--3-3--0-0h3--3-3-|-0-0h3--3-3--3--3-3-3-| 

  F#m                      A 
e|------------------------|-------------------| 
B|------------------------|-------------------| 
G|------------------------|-------------------| 
D|--------4-4---------4-4-|-7--7-7--7-7-7-7-7-| 
A|--------4-4---------4-4-|-7--7-7--7-7-7-7-7-| 
E|-0-0h2--2-2--0-0h2--2-2-|-5--5-5--5-5-5-5-5-| 


Chorus 1 
   D     G5    A           A     D    F#m    G5          G5 
e|-2-----3-----5---|-------5---|-2-----2-----3---|-------3---| 
B|-3-----3-----5---|-------5---|-3-----2-----3---|-------3---| 
G|-2-----0-----6---|-------6---|-2-----2-----0---|-------0---| 
D|-0-----0-----7---|-------7---|-0-----4-----0---|-------0---| 
A|-------x-----7---|-------7---|-------4-----x---|-------x---| 
E|-------3-----5---|-----0-5---|-------2-----3---|-------3---| 


verse 2 
  D 
e|------------------------------|--------------------------------| 
B|------------------------------|--------------------------------| 
G|------------------------------|--------------------------------| 
D|---------12-12----------12-12-|---------12-12--12-12--12-12-12-| 
A|---------12-12----------12-12-|---------12-12--12-12--12-12-12-| 
E|-0-0h10--10-10--0-0h10--10-10-|-0-0h10--10-10--10-10--10-10-10-| 

  A                                               G 
e|------------------------|----------------------|------------------------|----------------------| 
B|------------------------|----------------------|------------------------|----------------------| 
G|------------------------|----------------------|------------------------|----------------------| 
D|--------7-7---------7-7-|--------7-7--7--7-7-7-|--------5-5---------5-5-|--------5-5--5--5-5-5-| 
A|--------7-7---------7-7-|--------7-7--7--7-7-7-|--------5-5---------5-5-|--------5-5--5--5-5-5-| 
E|-0-0h5--5-5--0-0h5--5-5-|-0-0h5--5-5--5--5-5-5-|-0-0h3--3-3--0-0h3--3-3-|-0-0h3--3-3--3--3-3-3-| 

  F#m                      A 
e|------------------------|-------------------| 
B|------------------------|-------------------| 
G|------------------------|-------------------| 
D|--------4-4---------4-4-|-7--7-7--7-7-7-7-7-| 
A|--------4-4---------4-4-|-7--7-7--7-7-7-7-7-| 
E|-0-0h2--2-2--0-0h2--2-2-|-5--5-5--5-5-5-5-5-| 


Chorus 2 
   D     G5    A           A     D    F#m    G5          G5 
e|-2-----3-----5---|-------5---|-2-----2-----3---|-------3---| 
B|-3-----3-----5---|-------5---|-3-----2-----3---|-------3---| 
G|-2-----0-----6---|-------6---|-2-----2-----0---|-------0---| 
D|-0-----0-----7---|-------7---|-0-----4-----0---|-------0---| 
A|-------x-----7---|-------7---|-------4-----x---|-------x---| 
E|-------3-----5---|-----0-5---|-------2-----3---|-------3---| 


Breakdown 
   Bm         Em                   F#m           Bm         Em         G         F#m 
e|----------|----------|----------|----------|------------|----------|----------|----------| 
B|----------|----------|----------|----------|------------|----------|----------|----------| 
G|----------|----------|----------|----------|------------|----------|----------|----------| 
D|-9--------|-2--------|-5--------|-4--------|-7/9--------|-2--------|-5--------|-4--------| 
A|-9--------|-2--------|-5--------|-4--------|-7/9--------|-2--------|-5--------|-4--------| 
E|-7--------|-0--------|-3--------|-2--------|-5/7--------|-0--------|-3--------|-2--------| 

Solo 
e|-------------------------------------|------------------------------------------------| 
B|-------------------------------------|-14b15br14p12\~10\~8\7--10--12b13br12-12-~10-~8-| 
G|------------~7-------~9b10---10br9p7-|------------------------------------------------| 
D|-5/~9---7h9------7h9-----------------|------------------------------------------------| 
A|-------------------------------------|------------------------------------------------| 
E|-------------------------------------|------------------------------------------------| 

e|------------------------------|------------------9-7h9-10-9h10-12-10h12-14-| 
B|------------------------------|-10-8h10-12-10h12---------------------------| 
G|-------9-7h9-11-9h11-12-11h12-|--------------------------------------------| 
D|-7h9--------------------------|--------------------------------------------| 
A|------------------------------|--------------------------------------------| 
E|------------------------------|--------------------------------------------| 

e|-10h12-14-10h12-14-10h12-14b15-|-15-15-15-15\----| 
B|-------------------------------|-----------------| 
G|-------------------------------|-----------------| 
D|-------------------------------|-----------------| 
A|-------------------------------|-----------------| 
E|-------------------------------|-----------------| 

Chorus 3 
   D     G5    A           A     D    F#m    G5          G5 
e|-2-----3-----5---|-------5---|-2-----2-----3---|-------3---| 
B|-3-----3-----5---|-------5---|-3-----2-----3---|-------3---| 
G|-2-----0-----6---|-------6---|-2-----2-----0---|-------0---| 
D|-0-----0-----7---|-------7---|-0-----4-----0---|-------0---| 
A|-------x-----7---|-------7---|-------4-----x---|-------x---| 
E|-------3-----5---|-----0-5---|-------2-----3---|-------3---| 


Outro 
   Bm         A          G          D 
e|----------|----------|----------|----------| 
B|----------|----------|----------|----------| 
G|----------|----------|----------|----------| 
D|-9--------|-7--------|-5--------|-4--------| 
A|-9--------|-7--------|-5--------|-5--------| 
E|-7--------|-5--------|-3--------|-2--------| 

************************************ 
| h   Hammer-on 
| p   Pull-off 
| b   Bend 
| br  Bend release 
| /   Slide up 
| \   Slide down 
| ~   Vibrato 
************************************ 
  

cifra enviadasem correções
enviado porenviada por:alyslima
top 5 | manic street preachers
top
Outras músicas do artista letras do(a) Manic Street Preachers
Top cifras »Top artistas »
Petaxxon Comunicação Online
Cifras.com.br - Melhor e mais completo site de cifras e tablaturas do Brasil
Mais de 1 milhão de acordes de músicas cadastradas desde 2003
As informações contidas no nosso site são colaborações de seus usuários e podem conter erros, sendo assim, não nos responsabilizamos sobre nenhuma destas.
close
menos
mais
close
Cor dos acordes:

Cor da letra:

 

save
close
close
 
redimensionar