Cifras e Tablaturas
Manic Street Preachers

Manic Street Preachers

The View From Stow Hill

Cifras Cancelar Versão de Impressão

Manic Street Preachers - The View From Stow Hill

Tom: Am

  			
Intro 
e|----------------|----------------|-----7-7-----7-7|-----7-7-----7--| 
B|-----8-8-----8-8|-----8-8-----8-8|-8-8-----8-8----|-8-8-----8-8---8| 
G|----------------|----------------|----------------|----------------|  
D|-7-7-----7-7----|-7-7-----7-7----|----------------|----------------| 
A|----------------|----------------|----------------|----------------| 
E|----------------|----------------|----------------|----------------| 

e|----------------|----------------|-----7-7-----7-7|-----7-7-----7--| 
B|-----8-8-----8-8|-----8-8-----8-8|-8-8-----8-8----|-8-8-----8-8---8| 
G|----------------|----------------|----------------|----------------|  
D|-7-7-----7-7----|-7-7-----7-7----|----------------|----------------| 
A|----------------|----------------|----------------|----------------| 
E|----------------|----------------|----------------|----------------| 
   Am                                Am 
e|----------------|----------------|----------------|----------------| 
B|---------1---1--|---------1---1--|---------1---1--|---------1------| 
G|---------2------|---------2------|---------2------|---------2------| 
D|---------2------|---------2------|---------2------|---------2------| 
A|--0--0----------|--0--0----------|--0--0----------|--0--0-------0--| 
E|----------------|----------------|----------------|----------------| 

   G                                  G 
e|----------------|----------------|----------------|----------------| 
B|---------0------|---------0------|---------0------|---------0------| 
G|---------0------|---------0------|---------0------|---------0------| 
D|---------0---0--|---------0---0--|---------0---0--|---------0------| 
A|----------------|----------------|----------------|----------------| 
E|--3--3----------|--3--3----------|--3--3----------|--3--3-------3--| 

verse 1 
   Am                                Am 
e|----------------|----------------|----------------|----------------| 
B|---------1---1--|---------1---1--|---------1---1--|---------1------| 
G|---------2------|---------2------|---------2------|---------2------| 
D|---------2------|---------2------|---------2------|---------2------| 
A|--0--0----------|--0--0----------|--0--0----------|--0--0-------0--| 
E|----------------|----------------|----------------|----------------| 

     How did this town...            

  G                                  G 
e|----------------|----------------|----------------|----------------| 
B|---------0------|---------0------|---------0------|---------0------| 
G|---------0------|---------0------|---------0------|---------0------| 
D|---------0---0--|---------0---0--|---------0---0--|---------0------| 
A|----------------|----------------|----------------|----------------| 
E|--3--3----------|--3--3----------|--3--3----------|--3--3-------3--| 

     get so old.. 

   Am                                Am 
e|----------------|----------------|----------------|----------------| 
B|---------1---1--|---------1---1--|---------1---1--|---------1------| 
G|---------2------|---------2------|---------2------|---------2------| 
D|---------2------|---------2------|---------2------|---------2------| 
A|--0--0----------|--0--0----------|--0--0----------|--0--0-------0--| 
E|----------------|----------------|----------------|----------------| 

     The air I breathe...                               tastes so 

  G                                  G 
e|----------------|----------------|----------------|----------------| 
B|---------0------|---------0------|---------0------|---------0------| 
G|---------0------|---------0------|---------0------|---------0------| 
D|---------0---0--|---------0---0--|---------0---0--|---------0------| 
A|----------------|----------------|----------------|----------------| 
E|--3--3----------|--3--3----------|--3--3----------|--3--3-------3--| 

     heavy and cold 

   FM7                                FM7 
e|----------------|----------------|----------------|----------------| 
B|----------------|----------------|----------------|----------------| 
G|----------------|----------------|----------------|----------------| 
D|---------2---2--|---------2---2--|---------2---2--|---------2------| 
A|---------3------|---------3------|---------3------|---------3------| 
E|--1--1----------|--1--1----------|--1--1----------|--1--1-------1--| 

     Always caught in between...                        The capital... 
  
   Am                                Am 
e|----------------|----------------|----------------|----------------| 
B|---------1---1--|---------1---1--|---------1---1--|---------1------| 
G|---------2------|---------2------|---------2------|---------2------| 
D|---------2------|---------2------|---------2------|---------2------| 
A|--0--0----------|--0--0----------|--0--0----------|--0--0-------0--| 
E|----------------|----------------|----------------|----------------| 

      and the ‘other’ country 

   FM7                                FM7 
e|----------------|----------------|----------------|----------------| 
B|----------------|----------------|----------------|----------------| 
G|----------------|----------------|----------------|----------------| 
D|---------2---2--|---------2---2--|---------2---2--|---------2------| 
A|---------3------|---------3------|---------3------|---------3------| 
E|--1--1----------|--1--1----------|--1--1----------|--1--1-------1--| 

     Always caught in between...                          The river... 
  
   Am                                Am 
e|----------------|----------------|----------------|----------------| 
B|---------1---1--|---------1---1--|---------1---1--|---------1------| 
G|---------2------|---------2------|---------2------|---------2------| 
D|---------2------|---------2------|---------2------|---------2------| 
A|--0--0----------|--0--0----------|--0--0----------|--0--0-------0--| 
E|----------------|----------------|----------------|----------------| 

      and the valley 

verse 2 
   Am                                Am 
e|----------------|----------------|----------------|----------------| 
B|---------1---1--|---------1---1--|---------1---1--|---------1------| 
G|---------2------|---------2------|---------2------|---------2------| 
D|---------2------|---------2------|---------2------|---------2------| 
A|--0--0----------|--0--0----------|--0--0----------|--0--0-------0--| 
E|----------------|----------------|----------------|----------------| 

     You can still see...           

  G                                  G 
e|----------------|----------------|----------------|----------------| 
B|---------0------|---------0------|---------0------|---------0------| 
G|---------0------|---------0------|---------0------|---------0------| 
D|---------0---0--|---------0---0--|---------0---0--|---------0------| 
A|----------------|----------------|----------------|----------------| 
E|--3--3----------|--3--3----------|--3--3----------|--3--3-------3--| 

      the bullet holes.. 

   Am                                Am 
e|----------------|----------------|----------------|----------------| 
B|---------1---1--|---------1---1--|---------1---1--|---------1------| 
G|---------2------|---------2------|---------2------|---------2------| 
D|---------2------|---------2------|---------2------|---------2------| 
A|--0--0----------|--0--0----------|--0--0----------|--0--0-------0--| 
E|----------------|----------------|----------------|----------------| 

     You can still sense...                              a little...  

  G                                  G 
e|----------------|----------------|----------------|----------------| 
B|---------0------|---------0------|---------0------|---------0------| 
G|---------0------|---------0------|---------0------|---------0------| 
D|---------0---0--|---------0---0--|---------0---0--|---------0------| 
A|----------------|----------------|----------------|----------------| 
E|--3--3----------|--3--3----------|--3--3----------|--3--3-------3--| 

    hope... 

   FM7                                FM7 
e|----------------|----------------|----------------|----------------| 
B|----------------|----------------|----------------|----------------| 
G|----------------|----------------|----------------|----------------| 
D|---------2---2--|---------2---2--|---------2---2--|---------2------| 
A|---------3------|---------3------|---------3------|---------3------| 
E|--1--1----------|--1--1----------|--1--1----------|--1--1-------1--| 

     Crushed dreams ...                                    and the.. 
  
   Am                                Am 
e|----------------|----------------|----------------|----------------| 
B|---------1---1--|---------1---1--|---------1---1--|---------1------| 
G|---------2------|---------2------|---------2------|---------2------| 
D|---------2------|---------2------|---------2------|---------2------| 
A|--0--0----------|--0--0----------|--0--0----------|--0--0-------0--| 
E|----------------|----------------|----------------|----------------| 

      martyrs too... 

   FM7                                FM7 
e|----------------|----------------|----------------|----------------| 
B|----------------|----------------|----------------|----------------| 
G|----------------|----------------|----------------|----------------| 
D|---------2---2--|---------2---2--|---------2---2--|---------2------| 
A|---------3------|---------3------|---------3------|---------3------| 
E|--1--1----------|--1--1----------|--1--1----------|--1--1-------1--| 

     Silent-ghostly ...  

   Am                                Am 
e|----------------|----------------|----------------|----------------| 
B|---------1------|---------1---1--|---------1---1--|---------1------| 
G|---------2------|---------2------|---------2------|---------2------| 
D|---------2------|---------2------|---------2------|---------2------| 
A|--0--0-------0--|--0--0----------|--0--0----------|--0--0-------0--| 
E|----------------|----------------|----------------|----------------| 

 still so confused 

Chorus 
  G                                  G 
e|----------------|----------------|----------------|----------------| 
B|---------0------|---------0------|---------0------|---------0------| 
G|---------0------|---------0------|---------0------|---------0------| 
D|---------0---0--|---------0---0--|---------0---0--|---------0------| 
A|----------------|----------------|----------------|----------------| 
E|--3--3----------|--3--3----------|--3--3----------|--3--3-------3--| 

     Look up to the skies.. 

   D6add9                            D6add9 
e|----------------|----------------|----------------|--------------------| 
B|----------------|----------------|----------------|--------------------| 
G|---------11--11-|---------11--11-|---------11-----|---11----11----11---| 
D|---------12-----|---------12-----|---------12-----|---12----12----12---| 
A|----------9-----|----------9-----|----------9-----|----9-----9-----9---| 
E|--10-10---------|--10-10---------|--10-10---------|10----10----10----10| 

     Avoid the casual litter.. 

   CM7                               CM7 
e|----------------|----------------|----------------|--------------------| 
B|----------------|----------------|----------------|--------------------| 
G|----------9--9--|----------9--9--|----------9-----|-----9-----9-----9--| 
D|---------10-----|---------10-----|---------10-----|----10----10----10--| 
A|----------7-----|----------7-----|----------7-----|-----7-----7-----7--| 
E|--8--8----------|--8--8----------|--8--8----------|--8-----8-----8----8| 

     Running From the pitiful..                             nihilism.. 

   G                                   
e|----------------|----------------| 
B|---------0------|---------0------| 
G|---------0------|---------0------| 
D|---------0---0--|---------0------| 
A|----------------|----------------| 
E|--3--3----------|--3--3-------3--|    

e|----------------|----------------| 
B|0-1-0-----------|----------------| 
G|0-0-0----2-0----|----------------| 
D|---------0-0--2-|-0-0------------| 
A|--------------0-|-0-2------------| 
E|----------------|----------------| 

  G                                  G 
e|----------------|----------------|----------------|----------------| 
B|---------0------|---------0------|---------0------|---------0------| 
G|---------0------|---------0------|---------0------|---------0------| 
D|---------0---0--|---------0---0--|---------0---0--|---------0------| 
A|----------------|----------------|----------------|----------------| 
E|--3--3----------|--3--3----------|--3--3----------|--3--3-------3--| 

     The misguided tweets.. 

   D6add9                            D6add9 
e|----------------|----------------|----------------|--------------------| 
B|----------------|----------------|----------------|--------------------| 
G|---------11--11-|---------11--11-|---------11-----|---11----11----11---| 
D|---------12-----|---------12-----|---------12-----|---12----12----12---| 
A|----------9-----|----------9-----|----------9-----|----9-----9-----9---| 
E|--10-10---------|--10-10---------|--10-10---------|10----10----10----10| 

     The sad facebooking..                               Cheapness.... 

   CM7                               CM7 
e|----------------|----------------|----------------|--------------------| 
B|----------------|----------------|----------------|--------------------| 
G|----------9--9--|----------9--9--|----------9-----|-----9-----9-----9--| 
D|---------10-----|---------10-----|---------10-----|----10----10----10--| 
A|----------7-----|----------7-----|----------7-----|-----7-----7-----7--| 
E|--8--8----------|--8--8----------|--8--8----------|--8-----8-----8----8| 

     surrounds me.. 

   G                                   
e|----------------|----------------| 
B|---------0------|---------0------| 
G|---------0------|---------0------| 
D|---------0---0--|---------0------| 
A|----------------|----------------| 
E|--3--3----------|--3--3-------3--| 

     But I'm not looking.. 

e|----------------|----------------| 
B|0-1-0-----------|----------------| 
G|0-0-0----2-0----|----------------| 
D|---------0-0--2-|-0-0------------| 
A|--------------0-|-0-2------------| 
E|----------------|----------------| 

This part is played on 2 guitars, one electro-acoustic and one distorted electric I'm giving both side by side 

Bridge 2 
      
Acoustic 
e|---------------------------------------| 
B|---------------------------------------| 
G|-7/--9---9--9-9----9-9----9-9---9-9-9--| 
D|-7/--9---9--9-9----9-9----9-9---9-9-9--| x3 
A|-5/--7---7--7-7----7-7----7-7---7-7-7--| 
E|---------------------------------------| 

Electric 
e|---------------------------------------| 
B|--------8p7-8p7------------------------| 
G|------------------9-7~~---9-7----------|   
D|--------------------------------9-7----| x3 
A|------------------------------------10-| 
E|---------------------------------------| 

Acoustic 
e|---------------------------------------| 
B|---------------------------------------| 
G|-7/--9~--------------------------------| 
D|-7/--9~--------------------------------|  
A|-5/--7~--------------------------------| 
E|---------------------------------------| 
        
verse 3 (Distortion Melody) 

Acoustic 
   Am                                Am 
e|----------------|----------------|----------------|----------------| 
B|---------1------|---------1---1--|---------1---1--|---------1------| 
G|---------2------|---------2------|---------2------|---------2------| 
D|---------2------|---------2------|---------2------|---------2------| 
A|--0--0-------0--|--0--0----------|--0--0----------|--0--0-------0--| 
E|----------------|----------------|----------------|----------------| 

Electric 

e|-------------------------------------------------------------------| 
B|-------------------------------------------------------------------| 
G|--9-------------------------------------------9-------11-----------| 
D|----------10----------9------10--------10--------------------------| 
A|-------------------------------------------------------------------| 
E|-------------------------------------------------------------------| 
        
Acoustic 

  G                                  G 
e|----------------|----------------|----------------|----------------| 
B|---------0------|---------0------|---------0------|---------0------| 
G|---------0------|---------0------|---------0------|---------0------| 
D|---------0---0--|---------0---0--|---------0---0--|---------0------| 
A|----------------|----------------|----------------|----------------| 
E|--3--3----------|--3--3----------|--3--3----------|--3--3-------3--| 

Electric 

e|-------------------------------------------------------------------| 
B|-------------------------------------------------------------------| 
G|-------------------------------------------------------------------| 
D|-------------------------------------------------------------------| 
A|---12----14----12----14------12~~~~~~~~~---------------------------| 
E|-------------------------------------------------------------------| 
        
Acoustic 

   Am                                Am 
e|----------------|----------------|----------------|----------------| 
B|---------1---1--|---------1---1--|---------1---1--|---------1------| 
G|---------2------|---------2------|---------2------|---------2------| 
D|---------2------|---------2------|---------2------|---------2------| 
A|--0--0----------|--0--0----------|--0--0----------|--0--0-------0--| 
E|----------------|----------------|----------------|----------------| 

Electric 

e|-------------------------------------------------------------------| 
B|-------------------------------------------------------------------| 
G|--9-------------------------------------------9-------11-----------| 
D|----------10----------9------10--------10--------------------------| 
A|-------------------------------------------------------------------| 
E|-------------------------------------------------------------------| 
        
Acoustic 

  G                                  G 
e|----------------|----------------|----------------|----------------| 
B|---------0------|---------0------|---------0------|---------0------| 
G|---------0------|---------0------|---------0------|---------0------| 
D|---------0---0--|---------0---0--|---------0---0--|---------0------| 
A|----------------|----------------|----------------|----------------| 
E|--3--3----------|--3--3----------|--3--3----------|--3--3-------3--| 

Electric 

e|-------------------------------------------------------------------| 
B|-------------------------------------------------------------------| 
G|-------------------------------------------------------------------| 
D|-------------------------------------------------------------------| 
A|---12----14----12----14------12~~~~~~~~---------------------------| 
E|-------------------------------------------------------------------| 
        
Acoustic 

   FM7                                FM7 
e|----------------|----------------|----------------|----------------| 
B|----------------|----------------|----------------|----------------| 
G|----------------|----------------|----------------|----------------| 
D|---------2---2--|---------2---2--|---------2---2--|---------2---2--| 
A|---------3------|---------3------|---------3------|---------3------| 
E|--1--1----------|--1--1----------|--1--1----------|--1--1----------| 

Electric 

e|-------------------------------------------------------------------| 
B|-------------------------------------------------------------------| 
G|--9-------------------------------------------9-------11-----------| 
D|----------10----------9------10--------10--------------------------| 
A|-------------------------------------------------------------------| 
E|-------------------------------------------------------------------| 
        
Acoustic 

   Am                                Am 
e|----------------|----------------|----------------|----------------| 
B|---------1------|---------1---1--|---------1---1--|---------1------| 
G|---------2------|---------2------|---------2------|---------2------| 
D|---------2------|---------2------|---------2------|---------2------| 
A|--0--0-------0--|--0--0----------|--0--0----------|--0--0-------0--| 
E|----------------|----------------|----------------|----------------| 

Electric 

e|-------------------------------------------------------------------| 
B|-------------------------------------------------------------------| 
G|-------------------------------------------------------------------| 
D|-------------------------------------------------------------------| 
A|---13----14----13----14----13--------------------------------------| 
E|---------------------------------14--------------------------------| 
        
Acoustic 

   FM7                                FM7 
e|----------------|----------------|----------------|----------------| 
B|----------------|----------------|----------------|----------------| 
G|----------------|----------------|----------------|----------------| 
D|---------2---2--|---------2---2--|---------2---2--|---------2---2--| 
A|---------3------|---------3------|---------3------|---------3------| 
E|--1--1----------|--1--1----------|--1--1----------|--1--1----------| 

Electric 
e|-------------------------------------------------------------------| 
B|-------------------------------------------------------------------| 
G|--9-------------------------------------------9-------11-----------| 
D|----------10----------9------10--------10--------------------------| 
A|-------------------------------------------------------------------| 
E|-------------------------------------------------------------------| 
        
Acoustic 

   Am                                Am 
e|----------------|----------------|----------------|----------------| 
B|---------1---1--|---------1---1--|---------1------|----1---1---1---| 
G|---------2------|---------2------|---------2------|----2---2---2---| 
D|---------2------|---------2------|---------2------|----2---2---2---| 
A|--0--0----------|--0--0----------|--0--0----------|--0---0---0---0-| 
E|----------------|----------------|----------------|----------------| 

Electric 

e|------------------------------------------------------------------| 
B|------------------------------------------------------------------| 
G|------------------------------------------------------------------| 
D|---------------------------------------11~(hold note)-------------| 
A|---13----14----13----14----13-------------------------------------| 
E|---------------------------------14-------------------------------| 
       
Chorus 

     Look up to the skies.. 

   D6add9                            D6add9 
e|----------------|----------------|----------------|--------------------| 
B|----------------|----------------|----------------|--------------------| 
G|---------11--11-|---------11--11-|---------11-----|---11----11----11---| 
D|---------12-----|---------12-----|---------12-----|---12----12----12---| 
A|----------9-----|----------9-----|----------9-----|----9-----9-----9---| 
E|--10-10---------|--10-10---------|--10-10---------|10----10----10----10| 

     Avoid the casual litter.. 

   CM7                               CM7 
e|----------------|----------------|----------------|--------------------| 
B|----------------|----------------|----------------|--------------------| 
G|----------9--9--|----------9--9--|----------9-----|-----9-----9-----9--| 
D|---------10-----|---------10-----|---------10-----|----10----10----10--| 
A|----------7-----|----------7-----|----------7-----|-----7-----7-----7--| 
E|--8--8----------|--8--8----------|--8--8----------|--8-----8-----8----8| 

     Running From the pitiful..                             nihilism.. 

   G                                   
e|----------------|----------------| 
B|---------0------|---------0------| 
G|---------0------|---------0------| 
D|---------0---0--|---------0------| 
A|----------------|----------------| 
E|--3--3----------|--3--3-------3--|    

e|----------------|----------------| 
B|0-1-0-----------|----------------| 
G|0-0-0----2-0----|----------------| 
D|---------0-0--2-|-0-0------------| 
A|--------------0-|-0-2------------| 
E|----------------|----------------| 

  G                                  G 
e|----------------|----------------|----------------|----------------| 
B|---------0------|---------0------|---------0------|---------0------| 
G|---------0------|---------0------|---------0------|---------0------| 
D|---------0---0--|---------0---0--|---------0---0--|---------0------| 
A|----------------|----------------|----------------|----------------| 
E|--3--3----------|--3--3----------|--3--3----------|--3--3-------3--| 

     The misguided tweets.. 

   D6add9                            D6add9 
e|----------------|----------------|----------------|--------------------| 
B|----------------|----------------|----------------|--------------------| 
G|---------11--11-|---------11--11-|---------11-----|---11----11----11---| 
D|---------12-----|---------12-----|---------12-----|---12----12----12---| 
A|----------9-----|----------9-----|----------9-----|----9-----9-----9---| 
E|--10-10---------|--10-10---------|--10-10---------|10----10----10----10| 

     The sad facebooking..                               Cheapness.... 

   CM7                               CM7 
e|----------------|----------------|----------------|--------------------| 
B|----------------|----------------|----------------|--------------------| 
G|----------9--9--|----------9--9--|----------9-----|-----9-----9-----9--| 
D|---------10-----|---------10-----|---------10-----|----10----10----10--| 
A|----------7-----|----------7-----|----------7-----|-----7-----7-----7--| 
E|--8--8----------|--8--8----------|--8--8----------|--8-----8-----8----8| 

     surrounds me.. 

   G                                   
e|----------------|----------------| 
B|---------0------|---------0------| 
G|---------0------|---------0------| 
D|---------0---0--|---------0------| 
A|----------------|----------------| 
E|--3--3----------|--3--3-------3--| 

     But I'm not looking.. 

e|----------------|----------------| 
B|0-1-0-----------|----------------| 
G|0-0-0----2-0----|----------------| 
D|---------0-0--2-|-0-0------------| 
A|--------------0-|-0-2------------| 
E|----------------|----------------| 

Outro Bridge 

This part is played on 2 guitars, one electro-acoustic and one distorted electric I'm giving both side by side 

Acoustic 

e|---------------------------------------| 
B|---------------------------------------| 
G|-7/--9---9--9-9----9-9----9-9---9-9-9--| 
D|-7/--9---9--9-9----9-9----9-9---9-9-9--| x4 
A|-5/--7---7--7-7----7-7----7-7---7-7-7--| 
E|---------------------------------------| 

Electric 

e|---------------------------------------| 
B|--------8p7-8p7------------------------| 
G|------------------9-7~~---9-7----------|   
D|--------------------------------9-7----| x4 
A|------------------------------------10-| 
E|---------------------------------------| 
        
Acoustic 

e|---------------------------------------| 
B|---------------------------------------| 
G|-7/--9~--------------------------------| 
D|-7/--9~--------------------------------|  
A|-5/--7~--------------------------------| 
E|---------------------------------------| 


************************************ 

| (Hold Note) hold til the end of the bar 
| b   Bend 
| /   Slide up 
| ~   Vibrato 


************************************ 
    	
fixar
fixar inscrever-se

enviado porenviado por: tarikike
cifra enviadaCorrigida por: sem correções
logo top cifrasComente
ico música do artistaMúsicas deste artista
ico curtiuCurtiu?
ico destaqueDestaque
Petaxxon Comunicação Online

Cifras.com.br - Melhor e mais completo site de cifras e tablaturas do Brasil Mais de 1 milhão de acordes de músicas cadastradas desde 2003
As informações contidas no nosso site são colaborações de seus usuários e podem conter erros, sendo assim, não nos responsabilizamos sobre nenhuma destas.

close
menos
mais
close
Cor dos acordes:

Cor da letra:

close
Alinhar acordes a direita Alinhar acordes a esquerda Alinhar acordes em baixo Alinhar acordes no topo
close
  Mostrar todos os acordes Esconder acordes muito fáceis Esconder acordes fáceis Esconder acordes intermediários
redimensionar
glossário