Cifras e Tablaturas
Marilyn Manson

Marilyn Manson

Heaven Upside Down

Cifras Cancelar Versão de Impressão
cifras

Marilyn Manson - Heaven Upside Down

fixar na tela  
Exibindo: vídeo-aula ver clipes redimensionar

Tom:

  
Intro ("I can hear the scream of trumpets") x2 

e|---------------------------------------------------------------------------| 
B|---------------------------------------------------------------------------| 
G|---------------------------------------------------------------------------| 
D|--------------------------------------------7-7-7-7-6-6-6------------------|  
A|--9-9-9-9-9--11-11-11-11-11-11---5-5-5-5-5--5-5-5-5-4-4-4------------------| 
E|--7-7-7-7-7--9--9--9--9--9--9----3-3-3-3-3---------------------------------| 

heavy intro and Chorus  
e|-----------------------------------------------------------|    e|-----| 
B|-----------------------------------------------------------|    B|-----| 
G|-----------------------------------------7-7-7-7/6-6-6-----|    G|-----| 
D|--9-9-9-9-9--11-11-11-11-11---5-5-5-5-5--7-7-7-7/6-6-6-----| x2 D|--9~-| 
A|--9-9-9-9-9--11-11-11-11-11---5-5-5-5-5--5-5-5-5/4-4-4-----|    A|--9~-| 
E|--7-7-7-7-7--9--9--9--9--9----3-3-3-3-3--------------------|    E|--7~-| 

Verse (00:27 - 00:40) 
e|---------------------------------------------------------------------------| 
B|---------------------------------------------------------------------------| 
G|----------------------------------------14----14-14------------------------| 
D|--12-12-12-12~--14-14-14-14-14/12-12-12----12-------12~--------------------|  
A|---------------------------------------------------------------------------| 
E|---------------------------------------------------------------------------| 

        (00.40 - 00:55) 
e|---------------------------------------------------------------------------| 
B|---------------------------------------------------------------------------| 
G|---------------------------------------------------------------------------| 
D|---------------------------------------------------------------------------|  
A|--11-11-11-11--7~----11-11-11-11--5~----11-11-11-11--4~-----x-x-x--4/5~----| 
E|--9--9--9--9---5~----9--9--9--9---3~----9--9--9--9---2~-----x-x-x--2/3~----| 

Pre-Chorus 
e|-----------------| 
B|-----------------| 
G|----6-6-6--------| 
D|----6-6-6--------|  
A|----4-4-4--------| 
E|-----------------| 


************************************ 

| /  Slide up 
| ~  Vibrato 
| x  Dead note 

************************************ 
  

top 5 | marilyn manson
top heavy metal
Outras músicas do artista letras do(a) Marilyn Manson
Top cifras »Top artistas »
Petaxxon Comunicação Online
Cifras.com.br - Melhor e mais completo site de cifras e tablaturas do Brasil
Mais de 1 milhão de acordes de músicas cadastradas desde 2003
As informações contidas no nosso site são colaborações de seus usuários e podem conter erros, sendo assim, não nos responsabilizamos sobre nenhuma destas.
close
menos
mais
close
Cor dos acordes:

Cor da letra:

 

save
close
close
 
redimensionar