Cifras e Tablaturas
Mastodon

Mastodon

Word To The Wise

Cifras Cancelar Versão de Impressão
cifras

Mastodon - Word To The Wise

fixar na tela  
Exibindo: vídeo-aula ver clipes redimensionar
  
Intro 

   (7/4) 
D||-----------------------------|| 
A||-----------------------------|| 
F||-----------------------------|| 
C||---------5-------------5-----|| x4 
G||-5---3-----3---5---3-----3---|| 
A||---4---4-----4---4---4-----4-|| 


Verse 

   (6/4) 
D||------------------------------------------|| 
A||------------------------------------------|| 
F||------------------------------------------|| 
C||----------------------------------5-------|| x8 
G||-------------5-5-5-5-5-5-3-----3-----3----|| 
A||-4-4-4-4-4-4----------------4-----------4-|| 


Pre-Chorus 

   (4/4) 
D||---------------|---------------|----------------|-------------|| 
A||---------------|---------------|----------------|-------------|| 
F||---------------|---------------|----------------|-------------|| 
C||------7-/11----|------7-/11-9--|------7-/11-9-7-|-9-7-6-7-----|| x2 
G||----9----------|----9----------|----9-----------|---------7-9-|| 
A||-/7------------|-/7------------|-/7-------------|-------------|| 


Verse 

   (6/4) 
D||------------------------------------------|| 
A||------------------------------------------|| 
F||------------------------------------------|| 
C||----------------------------------5-------|| x8 
G||-------------5-5-5-5-5-5-3-----3-----3----|| 
A||-4-4-4-4-4-4----------------4-----------4-|| 


Pre-Chorus 

   (4/4) 
D||---------------|---------------|----------------|-------------|| 
A||---------------|---------------|----------------|-------------|| 
F||---------------|---------------|----------------|-------------|| 
C||------7-/11----|------7-/11-9--|------7-/11-9-7-|-9-7-6-7-----|| x4 
G||----9----------|----9----------|----9-----------|---------7-9-|| 
A||-/7------------|-/7------------|-/7-------------|-------------|| 


Chorus 

   (4/4) 
    Gtr I 
D||---------------------------------|---------------------------------| 
A||-----------------4---------------|-----------------3---------------| 
F||---------------------------------|---------------------------------| 
C||---------5-----------------------|---------5-----------------------| 
G||-3-------------------------------|-3-------------------------------| 
A||---------------------------------|---------------------------------| 
  | 
  | Gtr II 
D||---------------------------------|---------------------------------| 
A||---------------------------------|---------------------------------| 
F||---------------------------------|---------------------------------| 
C||---------------------------------|---------------------------------| 
G||---------------------------------|-----------------3-3-3-3-3-3-3-3-| 
A||-1-1-1-1-1-1-1-1-1-1-1-1-1-1-1-1-|-1-1-1-1-1-1-1-1-----------------| 


D|---------------------------------|---------------------------------|| 
A|-----------------8---------------|-------------------------6-------|| 
F|---------8-----------------------|---------8-----------7-------7---|| 
C|---------------------------------|-----------------0---------------|| 
G|-6-------------------------------|-6-------------------------------|| 
A|---------------------------------|---------------------------------|| 
 | 
D|---------------------------------|---------------------------------|| 
A|---------------------------------|---------------------------------|| 
F|---------------------------------|---------------------------------|| 
C|---------------------------------|---------------------------------|| x4 
G|---------------------------------|---------------------------------|| 
A|-4-4-4-4-4-4-4-4-4-4-4-4-4-4-4-4-|-4-4-4-4-4-4-4-4-3-3-3-3-3-3-3-3-|| 


Re-Intro 

   (7/4) 
D||-----------------------------|| 
A||-----------------------------|| 
F||-----------------------------|| 
C||---------5-------------5-----|| x4 
G||-5---3-----3---5---3-----3---|| 
A||---4---4-----4---4---4-----4-|| 


Bridge/Rhythm Under Solo 

   (4/4) 
D||----------------------|------------------------| 
A||----------------------|------------------------| 
F||-----------14---------|-------14----------10-9-| 
C||----------------------|------------------------| 
G||-0-10h12-0----12-10-0-|-10-12----12-10-12------| 
A||----------------------|------------------------| 


D|----------------------|-----------------------|| 
A|----------------------|-----------------------|| 
F|-----------14---------|-------14----------8-9-|| 
C|----------------------|-----------------------|| x4 
G|-0-10h12-0----12-10-0-|-10-12----12-10-12-----|| 
A|----------------------|-----------------------|| 


Solo 

  (4/4) 
D|----------------|------------|------------------| 
A|----------------|------------|------------------| 
F|----------------|------------|--------------5-7-| 
C|------------4-5-|-(5)--------|-(5)----4-5-7-----| 
G|------0h2h3-----|------------|------------------| 
A|----------------|------------|------------------| 


D|---------------|----------------------------| 
A|---------------|----------------7h8p7-------| 
F|-5h7p5----(5)--|-(5)--------8h9-------9p8h9-| 
C|---------------|---------10-----------------| 
G|---------------|----------------------------| 
A|---------------|----------------------------| 


D|-----------------------|----------------------------| 
A|-7h8/10----(10)--12-10-|-12h13p12----12h13p12h13p12-| 
F|-----------------------|----------------------------| 
C|-----------------------|----------------------------| 
G|-----------------------|----------------------------| 
A|-----------------------|----------------------------| 


D|-----------------12-13-15-|-15---17--17-17b18r==|-17----| 
A|-(12)---12h13p12----------|---------------------|-------| 
F|--------------------------|---------------------|-------| 
C|--------------------------|---------------------|-------| 
G|--------------------------|---------------------|-------| 
A|--------------------------|---------------------|-------| 


  (7/4)                       (6/4) 
D|---------------------------|---------------------------| 
A|-----5---------------------|-----15--------------------| 
F|-----7b9-------------------|-----17b19-----------------| 
C|---------------------------|---------------------------| 
G|---------------------------|---------------------------| 
A|---------------------------|---------------------------| 
 | 
D|---------------------------|---------------------------| 
A|-----4b5-------------------|------4b5------------------| 
F|------------------------7--|---------------------------| 
C|-2----------------------5--|-2-------------------------| 
G|-0--------0-3-6-3-5-3-0----|-0----------0-3-6-3-5-3----| 
A|---------------------------|---------------------------| 


  (7/4)                       (6/4) 
D|---------------------------|-----17--------------------| 
A|----17---------------------|-----20b22-----------------| 
F|----19b21------------------|---------------------------| 
C|---------------------------|---------------------------| 
G|---------------------------|---------------------------| 
A|---------------------------|---------------------------| 
 | 
D|---------------------------|---------------------------| 
A|-----4b5-------------------|------4b5------------------| 
F|------------------------7--|---------------------------| 
C|-2----------------------5--|-2-------------------------| 
G|-0--------0-3-6-3-5-3-0----|-0----------0-3-6-3-5-3----| 
A|---------------------------|---------------------------| 


Solo Continued 

  (7/4) 
D|-17------17----------------------17----------| 
A|-20b22---20b22----------17h20-------20p17----| 
F|---------------------19-------19----------19-| 
C|---------------------------------------------| 
G|---------------------------------------------| 
A|---------------------------------------------| 


  (6/4) 
D|-------------17----------------------------------17-20b22-20b22--| 
A|----17h20-------20p17-------------------------17-----------------| 
F|-19-------19----------20p19p17----19----17-19--------------------| 
C|-------------------------------19----19--------------------------| 
G|-----------------------------------------------------------------| 
A|-----------------------------------------------------------------| 


  (7/4) 
D|-20b22---20b22---20b22--20b22--20b22--20b22--| 
A|--N-------N-------N------N------N------N-----| 
F|---------------------------------------------| 
C|---------------------------------------------| 
G|---------------------------------------------| 
A|---------------------------------------------| 


  (6/4) 
D|-22b24---22b24---22b24--22b24--22b24--| 
A|--N-------N-------N------N------------| 
F|--------------------------------------| 
C|--------------------------------------| 
G|--------------------------------------| 
A|--------------------------------------| 


Chorus 

   (4/4) 
    Gtr I 
D||---------------------------------|---------------------------------| 
A||-----------------4---------------|-----------------3---------------| 
F||---------------------------------|---------------------------------| 
C||---------5-----------------------|---------5-----------------------| 
G||-3-------------------------------|-3-------------------------------| 
A||---------------------------------|---------------------------------| 
  | 
  | Gtr II 
D||---------------------------------|---------------------------------| 
A||---------------------------------|---------------------------------| 
F||---------------------------------|---------------------------------| 
C||---------------------------------|---------------------------------| 
G||---------------------------------|-----------------3-3-3-3-3-3-3-3-| 
A||-1-1-1-1-1-1-1-1-1-1-1-1-1-1-1-1-|-1-1-1-1-1-1-1-1-----------------| 


D|---------------------------------|---------------------------------|| 
A|-----------------8---------------|-------------------------6-------|| 
F|---------8-----------------------|---------8-----------7-------7---|| 
C|---------------------------------|-----------------0---------------|| 
G|-6-------------------------------|-6-------------------------------|| 
A|---------------------------------|---------------------------------|| 
 | 
D|---------------------------------|---------------------------------|| 
A|---------------------------------|---------------------------------|| 
F|---------------------------------|---------------------------------|| 
C|---------------------------------|---------------------------------|| x4 
G|---------------------------------|---------------------------------|| 
A|-4-4-4-4-4-4-4-4-4-4-4-4-4-4-4-4-|-4-4-4-4-4-4-4-4-3-3-3-3-3-3-3-3-|| 


D|---------------------------------|---------------------------------| 
A|-----------------8---------------|-------------------------6-------| 
F|---------8-----------------------|---------8-----------7-------7---| 
C|---------------------------------|-----------------0---------------| 
G|-6-------------------------------|-6-------------------------------| 
A|---------------------------------|---------------------------------| 
 | 
D|---------------------------------|---------------------------------| 
A|---------------------------------|---------------------------------| 
F|---------------------------------|---------------------------------| 
C|---------------------------------|---------------------------------| 
G|---------------------------------|---------------------------------| 
A|-4-4-4-4-4-4-4-4-4-4-4-4-4-4-4-4-|-4-4-4-4-4-4-4-4-3-3-3-3-3-3-3-3-| 


Outro Rhythm 

  (4/4) 
D||---------------------------------|----------------------------------| 
A||---------------------------------|----------------------------------| 
F||---------------------------------|----------------------------------| 
C||---------------------------------|----------------------------------| 
G||-----------------3-3-3-3-3-3-3-3-|-----------------5-5-5-5-5-5-5-5--| 
A||-1-1-1-1-1-1-1-1-----------------|-1-1-1-1-1-1-1-1------------------| 


D|---------------------------------|---------------------------------|| 
A|---------------------------------|---------------------------------|| 
F|---------------------------------|---------------------------------|| 
C|---------------------------------|---------------------------------|| x4 
G|-----------------6-6-6-6-6-6-6-6-|-----------------2-2-2-2-2-2-2-2-|| 
A|-4-4-4-4-4-4-4-4-----------------|-3-3-3-3-3-3-3-3-----------------|| 


Outro Solo 

  (4/4) 
D|---------------|---------------|-----------------|------------------------| 
A|---------------|---------------|-----------------|------------------------| 
F|---------------|---------------|-----------------|------------------------| 
C|---------------|---------------|-----------------|-4-0-4h5h7-4h5h7-4h5h7--| 
G|---3--5-5b6--5-|-3---5/6-5-3-5-|-5h6p5p3---3-5-6-|------------------------| 
A|---------------|---------------|-----------------|------------------------| 


D|-----------------------------|----------------------| 
A|----------6---6--------------|----------------------| 
F|-------/7---7---\5p3---5---3-|-5--------------------| 
C|-4h5h7---------------5---5---|---5p4p3---3----------| 
G|-----------------------------|---------6---6b8r6-8--| 
A|-----------------------------|----------------------| 


D|-----------------|----------------------------------------| 
A|-----------------|----------------------------------------| 
F|-----------------|-11\10-11\10-11\10-11\10----8-----------| 
C|-----------------|-------------------------10---10-8------| 
G|-8/10-10-10------|-----------------------------------10---| 
A|-----------------|----------------------------------------| 



***********************************  
|  /  Slide up  
|  \  Slide down  
|  h  Hammer-on  
|  p  Pull-off  
|  ~  Vibrato  
|  b  Bend  
|  =  Hold Bend 
|  N  Tremolo Picking 
| (n) Ghost Note 
*********************************** 
  

top 5 | mastodon
top heavy metal
Outras músicas do artista letras do(a) Mastodon
Top cifras »Top artistas »
Petaxxon Comunicação Online
Cifras.com.br - Melhor e mais completo site de cifras e tablaturas do Brasil
Mais de 1 milhão de acordes de músicas cadastradas desde 2003
As informações contidas no nosso site são colaborações de seus usuários e podem conter erros, sendo assim, não nos responsabilizamos sobre nenhuma destas.
close
menos
mais
close
Cor dos acordes:

Cor da letra:

 

save
close
close
 
redimensionar