Cifras e Tablaturas
Mat Kerekes

Mat Kerekes

Bosque Verde

Cifras Cancelar Versão de Impressão
cifras

Mat Kerekes - Bosque Verde

fixar na tela  
Exibindo: vídeo-aula ver clipes redimensionar

Tom:

  
Verse 
Here's the start of a familiar theme... 
e|-------------------------------0--0--0----------| 
B|-------------------------------1--1--1----------|   
G|---------0-------------0-1-2---2--0--2----------| 
D|----2-------2-------2----------2--2--3----------| x4 
A|-3----3--------3-2-------------0--x--3----------| 
E|-------------------------------x--3--x----------| 

Chorus 
Fluorescent dream... 
e|--0--0--0--0--------| 
B|--1--0--1--1--------|  
G|--2--0--0--2--------| x2 
D|--2--2--2--3--------| 
A|--0--2--x--3--------| 
E|--x--0--3--x--------| 

I feel your spreading fire... 
e|-------------------------------0--0--0----------| 
B|-------------------------------1--1--1----------|   
G|---------0-------------0-1-2---2--0--2----------| 
D|----2-------2-------2----------2--2--3----------| x4 
A|-3----3--------3-2-------------0--x--3----------| 
E|-------------------------------x--3--x----------| 

Chorus 
Fluorescent dream... 
e|--0--0--0--0--------| 
B|--1--0--1--1--------|  
G|--2--0--0--2--------|  x2 
D|--2--2--2--3--------| 
A|--0--2--x--3--------| 
E|--x--0--3--x--------| 

Solo  
(Electric guitar) 
e|--------15-----15/17-15-12---------------------| 
B|-12h13-------------------------13--12----------| 
G|--------------------------------------14-------| 
D|-----------------------------------------------| 
A|-----------------------------------------------| 
E|-----------------------------------------------| 

e|-------15-------15/17-15-12------------------| 
B|-12h13----------------------13--12--13-12----| 
G|-------------------------------------------14| 
D|---------------------------------------------| 
A|---------------------------------------------| 
E|---------------------------------------------| 

Outro 
Paint the sky with this familiar theme... 
e|-------------------------------0--0--0----------| 
B|-------------------------------1--1--1----------|   
G|---------0-------------0-1-2---2--0--2----------| 
D|----2-------2-------2----------2--2--3----------|  
A|-3----3--------3-2-------------0--x--3----------| 
E|-------------------------------x--3--x----------| 

************************************ 

| x  Dead note 
| /  Slide up 
| h  Hammer-on 

************************************ 
  

top 5 | mat kerekes
top rock'n roll
Outras músicas do artista letras do(a) Mat Kerekes
Top cifras »Top artistas »
Petaxxon Comunicação Online
Cifras.com.br - Melhor e mais completo site de cifras e tablaturas do Brasil
Mais de 1 milhão de acordes de músicas cadastradas desde 2003
As informações contidas no nosso site são colaborações de seus usuários e podem conter erros, sendo assim, não nos responsabilizamos sobre nenhuma destas.
close
menos
mais
close
Cor dos acordes:

Cor da letra:

 

save
close
close
 
redimensionar