Cifras e Tablaturas
Mat Kerekes

Mat Kerekes

For Anyone

Cifras Cancelar Versão de Impressão
cifras

Mat Kerekes - For Anyone

fixar na tela  
Exibindo: vídeo-aula ver clipes redimensionar

Tom:

  
Stave 1 
E|-----------------------------------------------------------------------------------------| 
B|-----------------------------------0--0--------------------------------------------------| 
G|--0-----0-----0--------0-----0-----4--2--0-----------------------------------------------| 
D|--4-----4-----2--4--2--0-----0-----------4--0-----0-----0--------0-----0-----0-----------| 
A|--5--5--5--5--4--5--4--2--2--2--2-----------2-----2-----2--0-----4-----4-----4--4--5--0--| 
E|--------------------------------------------3--3--3--3--3--2--0--5--5--5--5--5-----------| 

Stave 2                                                                                "Stay  
for a moment..." 
E|-----------------------------------------------------------------------------------------| 
B|-----------------------------------0--0--------------------------------------------------| 
G|--0-----0-----0--0--0--0-----0-----4--2--0-----------------------------------------------| 
D|--4-----4-----2--2--2--0-----0-----------4--0-----0-----0--------0-----0-----0-----------| 
A|--5--5--5--5--4--4--4--2--2--2--2-----------2-----2-----2--0-----4-----4-----4--4--5--0--| 
E|--------------------------------------------3--3--3--3--3--2--0--5--5--5--5--5-----------| 

Repeat these staves until Chorus. 
Stave 3( Chorus ) 
         "Matte black covers us..."              "...Care too much" 
E|--------------------------------------------------------------------------------------------------| 
B|--------------------------------------------------------------------------------------------------| 
G|--------------------------------------------------0-----0-----0-----0-----0-----0-----0-----------| 
D|--0-----0-----0-----0-----0-----0-----0-----0-----4-----4-----4-----4-----4-----4-----4-----------| 
A|--2-----2-----2-----2-----2-----2-----2-----2-----5--5--5--5--5--5--5--5--5--5--5--5--5--4--5--0--| 
E|--3--3--3--3--3--3--3--3--3--3--3--3--3--3--3--3--------------------------------------------------| 
 
  

top 5 | mat kerekes
top rock'n roll
Outras músicas do artista letras do(a) Mat Kerekes
Top cifras »Top artistas »
Petaxxon Comunicação Online
Cifras.com.br - Melhor e mais completo site de cifras e tablaturas do Brasil
Mais de 1 milhão de acordes de músicas cadastradas desde 2003
As informações contidas no nosso site são colaborações de seus usuários e podem conter erros, sendo assim, não nos responsabilizamos sobre nenhuma destas.
close
menos
mais
close
Cor dos acordes:

Cor da letra:

 

save
close
close
 
redimensionar