Cifras e Tablaturas
Cifras Cancelar Versão de Impressão
cifras

Matthew And The Atlas - Elijah

fixar na tela  
Exibindo: vídeo-aula ver clipes redimensionar

Tom:

A

ver outros tons
   
Capo 2 


Intro and verse (14x) 
C#|----------------------------------------------------------| 
B |------0------0-------------0-------0-------0-------0------| 
G#|---------0---------------------5-------5-------0----------| 
C#|----7------5-------0-----3-------3-------3-------3--------| 
A |-4-----4--------2------0-----0-------0-------0------------| 
E |----------------------------------------------------------| 


Chorus   (6x) 
C#|----------------------------------------------------------| 
B |-------7-------7---------0-------0---------0-------0------| 
G#|---0-------0---------0-------0---------0-------0----------| 
C#|-----8-------8---------3-------3---------3-------3--------| 
A |-------------------2-------2---------0-------0------------| 
E |-9-------9------------------------------------------------| 

C#|----------------------------------------------------------| 
B |-------0-------0------------------------------------------| 
G#|---0-------0----------------------------------------------| 
C#|-----3-------3--------------------------------------------| 
A |-0-------0------------------------------------------------| 
E |----------------------------------------------------------| 


End of Chorus 
C#|----------------------------------------------------------| 
B |-------7-------7-------7-------7-------7-------7----------| 
G#|---0-------0-------0-------0-------0-------0--------------| 
C#|-----8-------8-------8-------8-------8-------8------------| 
A |----------------------------------------------------------| 
E |-9-------9-------9-------9-------9-------9-------9~-------| 

After the first Chorus the intro/verse riff is played again, but the second and fourth time he  
plays it slightly differently by adding a 5 on the B string in the third chord. 

C#|----------------------------------------------------------| 
B |------0------0-------------0-------5-------0-------0------| 
G#|---------0---------------------5-------5-------0----------| 
C#|----7------5-------0-----3-------3-------3-------3--------| 
A |-4-----4--------2------0-----0-------0-------0------------| 
E |----------------------------------------------------------| 

Then again into the Verse: 
C#|----------------------------------------------------------| 
B |------0------0-------------0-------0-------0-------0------| 
G#|---------0---------------------5-------5-------0----------| 
C#|----7------5-------0-----3-------3-------3-------3--------| 
A |-4-----4--------2------0-----0-------0-------0------------| 
E |----------------------------------------------------------| 


Chorus   (6x) 
C#|----------------------------------------------------------| 
B |-------7-------7---------0-------0---------0-------0------| 
G#|---0-------0---------0-------0---------0-------0----------| 
C#|-----8-------8---------3-------3---------3-------3--------| 
A |-------------------2-------2---------0-------0------------| 
E |-9-------9------------------------------------------------| 

C#|----------------------------------------------------------| 
B |-------0-------0------------------------------------------| 
G#|---0-------0----------------------------------------------| 
C#|-----3-------3--------------------------------------------| 
A |-0-------0------------------------------------------------| 
E |----------------------------------------------------------| 

End of Chorus: 
C#|----------------------------------------------------------| 
B |-------7-------7-------7-------7-------7-------7----------| 
G#|---0-------0-------0-------0-------0-------0--------------| 
C#|-----8-------8-------8-------8-------8-------8------------| 
A |----------------------------------------------------------| 
E |-9-------9-------9-------9-------9-------9-------9~-------| 


Bridge 
C#|----------| 
B |-------0--| 
G#|---0------| x8 
C#|-----7----| 
A |-4--------| 
E |----------| 

C#|----------------------------------------------------------| 
B |-------0-------0--------0-------0--------0-------0--------| 
G#|---0-------0--------0-------0--------0-------0------------| 
C#|-----3-------3--------2-------2--------0-------0----------| 
A |-0-------0-------------------------0-------0--------------| 
E |------------------4-------4-------------------------------| 

C#|----------------------------------------------------------| 
B |-------0-------0------------------------------------------| 
G#|---0-------0----------------------------------------------| 
C#|-----0-------0--------------------------------------------| 
A |-2-------2------------------------------------------------| 
E |----------------------------------------------------------| 


Chorus  (6x) 
C#|----------------------------------------------------------| 
B |-------7-------7---------0-------0---------0-------0------| 
G#|---0-------0---------0-------0---------0-------0----------| 
C#|-----8-------8---------3-------3---------3-------3--------| 
A |-------------------2-------2---------0-------0------------| 
E |-9-------9------------------------------------------------| 

C#|----------------------------------------------------------| 
B |-------0-------0------------------------------------------| 
G#|---0-------0----------------------------------------------| 
C#|-----3-------3--------------------------------------------| 
A |-0-------0------------------------------------------------| 
E |----------------------------------------------------------| 

End of Chorus: 
C#|----------------------------------------------------------| 
B |-------7-------7-------7-------7-------7-------7----------| 
G#|---0-------0-------0-------0-------0-------0--------------| 
C#|-----8-------8-------8-------8-------8-------8------------| 
A |----------------------------------------------------------| 
E |-9-------9-------9-------9-------9-------9-------9~-------| 


Ending 
C#|----------------------------------------------------------| 
B |------0------0-------------0-------0-------0-------0------| 
G#|---------0---------------------5-------5-------0----------| 
C#|----7------5-------0-----3-------3-------3-------3--------| 
A |-4-----4--------2------0-----0-------0-------0------------| 
E |----------------------------------------------------------| 

C#|-------------------------| 
B |------0------0-----------| 
G#|---------0---------------| 
C#|----7------5-------0-----| 
A |-4-----4--------2------0-| 
E |-------------------------| 


************************************ 

| ~  Vibrato 

************************************ 
  

top 5 | matthew and the atlas
top
Outras músicas do artista letras do(a) Matthew And The Atlas
Top cifras »Top artistas »
Petaxxon Comunicação Online
Cifras.com.br - Melhor e mais completo site de cifras e tablaturas do Brasil
Mais de 1 milhão de acordes de músicas cadastradas desde 2003
As informações contidas no nosso site são colaborações de seus usuários e podem conter erros, sendo assim, não nos responsabilizamos sobre nenhuma destas.
close
menos
mais
close
Cor dos acordes:

Cor da letra:

 

save
close
close
 
redimensionar