Cifras e Tablaturas
Mc Don Juan

Mc Don Juan

Oh Novinha

Cifras Cancelar Versão de Impressão
cifras

Mc Don Juan - Oh Novinha

fixar na tela  
Exibindo: vídeo-aula ver clipes redimensionar

Tom:

  Primeira parte: 
E|---4---4-7-7--7-5-5-7-5-4----------| 
B|-----------------------------------| 
G|-----------------------------------| 
D|-----------------------------------| 
A|-----------------------------------| 
E|-----------------------------------| 

Segunda Parte: 
E|-4-4-4--7-7-7-5-5-7-4--------------| 
B|-----------------------------------| 
G|-----------------------------------| 
D|-----------------------------------| 
A|-----------------------------------| 
E|-----------------------------------| 

E|-4-4-4-7-7-7-7-5-5-7-5-4-----------| 
B|-----------------------------------| 
G|-----------------------------------| 
D|-----------------------------------| 
A|-----------------------------------| 
E|-----------------------------------| 

Terceira Parte (2x): 
E|-4-4-4-4-4-2--2-4-4-4-4-4----------| 
B|-----------------------------------| 
G|-----------------------------------| 
D|-----------------------------------| 
A|-----------------------------------| 
E|-----------------------------------| 
  

top 5 | mc don juan
top rock'n roll
Outras músicas do artista letras do(a) Mc Don Juan
Top cifras »Top artistas »
Petaxxon Comunicação Online
Cifras.com.br - Melhor e mais completo site de cifras e tablaturas do Brasil
Mais de 1 milhão de acordes de músicas cadastradas desde 2003
As informações contidas no nosso site são colaborações de seus usuários e podem conter erros, sendo assim, não nos responsabilizamos sobre nenhuma destas.
close
menos
mais
close
Cor dos acordes:

Cor da letra:

 

save
close
close
 
redimensionar