Cifras e Tablaturas
Metallica

Metallica

Atlas Rise

Cifras Cancelar Versão de Impressão
cifras

Metallica - Atlas Rise

fixar na tela  
Exibindo: vídeo-aula ver clipes redimensionar

Tom:

  
Intro 

e|------------------------------|| 
B|------------------------------|| 
G|---2-----2-2-----2-2h3p2-0h2--|| 
D|---2-----2-2-----2-2h3p2-0h2--||x3 
A|---0-----0-0-----0------------|| 
E|-----0-0-----0-0--------------|| 

e|----------------------------------------|| 
B|----------------------------------------|| 
G|---2-----2-2-----2---2-3-2-0------------|| 
D|---2-----2-2-----2---2-3-2-0---3-2-0----||x3 
A|---0-----0-0-----0-------------3-2-0-3--|| 
E|-----0-0------0-0--------------------3--|| 

e|------------------------------|---------------------------------------|| 
B|------------------------------|---------------------------------------|| 
G|---2-----2-2-----2-2h3p2-0h2--|---2-----2-2-----2---2-3-2-0-----------|| 
D|---2-----2-2-----2-2h3p2-0h2--|---2-----2-2-----2---2-3-2-0--3-2-0----|| 
A|---0-----0-0-----0------------|---0-----0-0-----0------------3-2-0-3--|| 
E|-----0-0-----0-0--------------|-----0-0-----0-0--------------------3--|| 

e|------------------------------|--------------------|| 
B|------------------------------|--------------------|| 
G|---2-----2-2-----2-2h3p2-0h2--|---2-----2-2-----2--|| 
D|---2-----2-2-----2-2h3p2-0h2--|---2-----2-2-----2--|| 
A|---0-----0-0-----0------------|---0-----0-0-----0--|| 
E|-----0-0-----0-0--------------|-----0-0-----0-0----|| 

e|---------------------|| 
B|---------------------|| 
G|---2-3-2-0-----------|| 
D|---2-3-2-0--3-2-0----||x2 
A|------------3-2-0-3--|| 
E|------------------3--|| 

in second 25 
e|-------------------------------|-------------------------------|------------------------------|| 
B|-------------------------------|-------------------------------|------------------------------|| 
G|-2------------------------7~~--|--------------------------7~~--|------------------------------|| 
D|-2------------------------7~~--|--------------------------7~~--|------------------------------|| 
A|-0-0-0-0-0-0--1p0---0-0--------|-0-0-0-0-0-0--1p0---0-0--------|-0-0-0-0-0-0--1p0-------------|| 
E|-------------------------------|-------------------------------|------------------------------|| 

e|----------------------------------|| 
B|----------------------------------|| 
G|---2-----2-2-----2-2-----2h3p2p0--|| 
D|---2-----2-2-----2-2-----2h3p2p0--|| 
A|---0-----0-0-----0-0-----0--------|| 
E|-----0-0-----0-0-----0-0----------|| 

e|-------------------------------------|--------------------------------------| 
B|-------------------------------------|--------------------------------------| 
G|--9/7--------------------------------|---------------------2----------------| 
D|--7/5-----7/9------------------------|---------------------2----------------|x3 
A|----------5/7------------------------|---------------------0----------------| 
E|------0-0------0-0-6p0--3p0-3\5/3p0--|--0-0-0-0-0-0-0--1p0------------------| 

e|----------------------------------------------|| 
B|----------------------------------------------|| 
G|--9/7-----------------------------------------|| 
D|--7/5-----7/9---------------------------------|| 
A|----------5/7---------------------------------|| 
E|------0-0------0-0-6p0--3p0-3\5---------------|| 

e|----------------------------------|| 
B|----------------------------------|| 
G|---2-----2-2-----2-2-----2h3p2p0--|| 
D|---2-----2-2-----2-2-----2h3p2p0--|| 
A|---0-----0-0-----0-0-----0--------|| 
E|-----0-0-----0-0-----0-0----------|| 

Verse 
Bitterness and burden.......... 
e|-------------------------------------------| 
B|-------------------------------------------| 
G|---------------------------------2---------| 
D|---------------------------------2---------| 
A|---------------------------------0---------| 
E|-0-0-0-0-0-0-0-0-0-0---1p0--1p0------------| 

e|-----------------------------------|-------------------------------------------|| 
B|-----------------------------------|-------------------------------------------|| 
G|---------------------------------2-|------------------------2------------------|| 
D|---------------------------------2-|------------------------2------------------|| 
A|---------------------------------0-|------------------------0------------------||x2 
E|-0-0-0-0-0-0-0-0-0-0---1p0--1p0----|-0-0-0-0-0-0-0-0-0-0------0-0-0-0-0-0-0----|| 

Grudges break your back.... 

Chorus 
All you bear.......... 
e|------------------------------------|--------------|---------------------------------|----------------| 
B|------------------------------------|--------------|---------------------------------|----------------| 
G|------------------------------------|--------------|---------------------------------|----------------| 
D|------------------------------------|--5---7---8---|---------------------------------|---8/7----8/7---|x2 
A|--2----------2-----------2----------|--5---7---8---|--------2-------------2----------|---8/7----8/7---| 
E|--0--0-0-0---0---0-0-0---0---0-0-0--|--3---5---6---|0-0-0---0---0-0-0-0---0---0-0-0--|---6/5----6/5---| 

e|------------| 
B|------------| 
G|-5-5-5-5----| 
D|-5-5-5-5----| 
A|-3-3-3-3----| 
E|-3-3-3-3----| 

e|-----|-------------------|-------------------|--------------------------------------| 
B|-----|-------------------|-------------------|--------------------------------------| 
G|-----|--------4-------7--|--------4-------4--|--------4-----------------------------| 
D|--2--|--5-4-5---5-4---7--|--5-4-5---5-4---4--|--5-4-5---5-4---2---4-5----1---1\2----|X2 
A|--2--|----------------5--|----------------2--|----------------2---4-5----1---1\2----| 
E|--0--|-------------------|-------------------|--------------------------------------| 

e|-------------------------------------|--------------------------------------| 
B|-------------------------------------|--------------------------------------| 
G|--9/7--------------------------------|---------------------2----------------| 
D|--7/5-----7/9------------------------|---------------------2----------------|x3 
A|----------5/7------------------------|---------------------0----------------| 
E|------0-0------0-0-6p0--3p0-3\5/3p0--|--0-0-0-0-0-0-0--1p0------------------| 

e|----------------------------------------------|| 
B|----------------------------------------------|| 
G|--9/7-----------------------------------------|| 
D|--7/5-----7/9---------------------------------|| 
A|----------5/7---------------------------------|| 
E|------0-0------0-0-6p0--3p0-3\5---------------|| 

e||----------------------------------|| 
B||----------------------------------|| 
G||---2-----2-2-----2-2-----2h3p2p0--|| 
D||---2-----2-2-----2-2-----2h3p2p0--|| 
A||---0-----0-0-----0-0-----0--------|| 
E||-----0-0-----0-0-----0-0----------|| 



Verse 
Crucified..... 
Kirks wah wah 

e|----------------------------------------|-----------------------------------|| 
B|----------------------------------------|-----------------------------------|| 
G|---9~~~~~~~~~~--9~~~~~~~~~--9~~~~~~~~~--|--12-----12------------------------|| 
D|----------------------------------------|--12-----12------------------------|| 
A|----------------------------------------|-----0-0---------------------------|| 
E|----------------------------------------|-----------------------------------|| 


e|-------------------------------|---------------|----------------------------------|------------|| 
B|-------------------------------|---------------|----------------------------------|------------|| 
G|-------------------------------|---------------|----------------------------------|------------|| 
D|-------------------------------|---------7-----|----------------------------------|------7-----|| x2 
A|-------------------------------|---------7-----|----------------------------------|------7-----|| 
E|-0-0-0-0---0-0-0-0---0-0-0-0---|1p0-1p0--5-----|---0-0-0-0---0-0-0-0---0-0-0-0----|------5-----|| 
What have you become? 

Chorus 
e|------------------------------------|--------------|---------------------------------|----------------| 
B|------------------------------------|--------------|---------------------------------|----------------| 
G|------------------------------------|--------------|---------------------------------|----------------| 
D|------------------------------------|--5---7---8---|---------------------------------|---8/7----8/7---|x2 
A|--2----------2-----------2----------|--5---7---8---|--------2-------------2----------|---8/7----8/7---| 
E|--0--0-0-0---0---0-0-0---0---0-0-0--|--3---5---6---|0-0-0---0---0-0-0-0---0---0-0-0--|---6/5----6/5---| 

e|------------| 
B|------------| 
G|-5-5-5-5----| 
D|-5-5-5-5----| 
A|-3-3-3-3----| 
E|-3-3-3-3----| 

Verse 
Die as you suffer in vain........... 

e|-----|-------------------|-------------------|--------------------------------------| 
B|-----|-------------------|-------------------|--------------------------------------| 
G|-----|--------4-------7--|--------4-------4--|--------4-----------------------------| 
D|--2--|--5-4-5---5-4---7--|--5-4-5---5-4---4--|--5-4-5---5-4---2---4-5----1---1\2----|X2 
A|--2--|----------------5--|----------------2--|----------------2---4-5----1---1\2----| 
E|--0--|-------------------|-------------------|--------------------------------------| 

e|--------------------------| 
B|--------------------------| 
G|--------------------------| 
D|-1\2----2---4-5----1\2----| 
A|-1\2----2---4-5----1\2----| 
E|--------------------------| 

e|------------------------------------------------------------------------------------------|----------------| 
B|------------------------------------------------------------------------------------------|----------------| 
G|--------4-------------4-------------------------------------------------------------------|----------------| 
D|-5-4-5-----5-4-5-4-5----5-4-5-4-----4-------------5-------------5-------------------------|--5-----7---8---| 
A|---------------------------------7-----7-5-7-5-7-----7-5-7-5-7-----7-5-7-5-4-5-4-2-4-2-0--|--5-----7---8---| 
E|------------------------------------------------------------------------------------------|--3-----5---6---| 

Pre-Solo 

e|-----------| 
B|-----------| 
G|-----------| 
D|---5---7---| 
A|---5---7---| 
E|---3---5---| 

e|------------------------------------------------|---------------------------------------------------| 
B|------------------------------------------------|---------------------------------------------------| 
G|------------------------------------------------|---------------------------------------------------| 
D|--2--------2--------2--------2------------------|---2--------2--------2----------5-----5---5\7/5----|x4 
A|--2--------2--------2--------2--------1p0-------|---2--------2--------2----------5-----5---5\7/5----| 
E|--0--0--0--0--0--0--0--0--0--0--0--0-------3p0--|---0--0--0--0--0--0--0--0--0----3--0--3---3\5/3----| 


Solo 
James:  
e|------------------------------------------------|---------------------------------------------------| 
B|------------------------------------------------|---------------------------------------------------| 
G|------------------------------------------------|---------------------------------------------------| 
D|--2--------2--------2--------2------------------|---2--------2--------2----------5-----5---5\7/5----|x2 
A|--2--------2--------2--------2--------1p0-------|---2--------2--------2----------5-----5---5\7/5----| 
E|--0--0--0--0--0--0--0--0--0--0--0--0-------3p0--|---0--0--0--0--0--0--0--0--0----3--0--3---3\5/3----| 

Kirk: 
e|---------------------------------------------------------------------------| 
B|---------------------------------------------------------------------------| 
G|---------------------------------------------------------------------------| 
D|---------------------------------------------------------------------------| 
A|---------------------------------------------------------------------------| 
E|---------------------------------------------------------------------------| 

James: 
e|--------------------------------------------------| 
B|--------------------------------------------------| 
G|--------------------------------------------------| 
D|--5--------5--------5--------5--------------------|x4 
A|--5--------5--------5--------5--------4--3-----3--| 
E|--3--3--3--3--3--3--3--3--3--3--3--3--------6-----| 

e|--------------------------------------------------| 
B|--------------------------------------------------| 
G|--------------------------------------------------| 
D|--4--------4--------4--------4--------------------|x4 
A|--4--------4--------4--------4--------3--2-----2--| 
E|--2--2--2--2--2--2--2--2--2--2--2--2--------5-----| 

e|----------------|-------------------|-----------------------|-------------------|-------------------------| 
B|----------------|-------------------|-----------------------|-------------------|-------------------------| 
G|---------\5---4-|---------5-4---2\4-|-----------------\8--7-|---------8-7---5\7-|----------------\10---9--| 
D|---------\5---4-|---------5-4---2\4-|-----------------\8--7-|---------8-7---5\7-|----------------\10---9--| 
A|--2--4----------|--2--4-------------|--4--------5--7--------|--5--7-------------|--7--------7-9-----------| 
E|--0--2----------|--0--2-------------|--2--0--0--3--5--------|--3--5-------------|--5--X--X--5-7-----------| 

e|--------------------------------------| 
B|--------------------------------------| 
G|--------------------------------------| 
D|---9--------9-9--------9-9h10p9p7-----| 
A|---9--------9-9--------9-9h10p9p7-----| 
E|---7--0--0--7-7--0--0--7--------------| 

e|-------------------------|-------------------------|-------------------------| 
B|-------------------------|-------------------------|-------------------------| 
G|-5-----5-----5-----5---5-|-7-----7-----7-----7---7-|-4-----4-----4-----4---4-| 
D|-5-----5-----5-----5---5-|-7-----7-----7-----7---7-|-4-----4-----4-----4---4-|x2 
A|-3-3-3-3-3-3-3-3-3-3-3-3-|-5-5-5-5-5-5-5-5-5-5-5-5-|-2-2-2-2-2-2-2-2-2-2-2-2-| 
E|-------------------------|-------------------------|-------------------------| 

e|------------------------------------------------------------------------------------------|------------| 
B|------------------------------------------------------------------------------------------|------------| 
G|--------4-------------4-------------------------------------------------------------------|------------| 
D|-5-4-5-----5-4-5-4-5----5-4-5-4-----4-------------5-------------5-------------------------|--5-----8---| 
A|---------------------------------7-----7-5-7-5-7-----7-5-7-5-7-----7-5-7-5-4-5-4-2-4-2-0--|--5-----8---| 
E|------------------------------------------------------------------------------------------|--3-----6---| 

e|----------------------------------|| 
B|----------------------------------|| 
G|---2-----2-2-----2-2-----2h3p2p0--|| 
D|---2-----2-2-----2-2-----2h3p2p0--|| 
A|---0-----0-0-----0-0-----0--------|| 
E|-----0-0-----0-0-----0-0----------|| 


Verse 
Masquerade as maker.......... 
e|-------------------------------------------| 
B|-------------------------------------------| 
G|---------------------------------2---------| 
D|---------------------------------2---------| 
A|---------------------------------0---------| 
E|-0-0-0-0-0-0-0-0-0-0---1p0--1p0------------| 

e|-----------------------------------|-------------------------------------------|| 
B|-----------------------------------|-------------------------------------------|| 
G|---------------------------------2-|------------------------2------------------|| 
D|---------------------------------2-|------------------------2------------------|| 
A|---------------------------------0-|------------------------0------------------||x2 
E|-0-0-0-0-0-0-0-0-0-0---1p0--1p0----|-0-0-0-0-0-0-0-0-0-0------0-0-0-0-0-0-0----|| 

Swallow all your pride.... 

Chorus 
e|------------------------------------|--------------|---------------------------------|----------------| 
B|------------------------------------|--------------|---------------------------------|----------------| 
G|------------------------------------|--------------|---------------------------------|----------------| 
D|------------------------------------|--5---7---8---|---------------------------------|---8/7----8/7---|x2 
A|--2----------2-----------2----------|--5---7---8---|--------2-------------2----------|---8/7----8/7---| 
E|--0--0-0-0---0---0-0-0---0---0-0-0--|--3---5---6---|0-0-0---0---0-0-0-0---0---0-0-0--|---6/5----6/5---| 

e|------------| 
B|------------| 
G|-5-5-5-5----| 
D|-5-5-5-5----| 
A|-3-3-3-3----| 
E|-3-3-3-3----| 

Verse 
Die as you suffer in vain........... 

e|-----|-------------------|-------------------|--------------------------------------| 
B|-----|-------------------|-------------------|--------------------------------------| 
G|-----|--------4-------7--|--------4-------4--|--------4-----------------------------| 
D|--2--|--5-4-5---5-4---7--|--5-4-5---5-4---4--|--5-4-5---5-4---2---4-5----1---1\2----|X2 
A|--2--|----------------5--|----------------2--|----------------2---4-5----1---1\2----| 
E|--0--|-------------------|-------------------|--------------------------------------| 

e|--------------------------------| 
B|--------------------------------| 
G|--------------------------------| 
D|-1--1\2----2---4-5----1--1\2----| 
A|-1--1\2----2---4-5----1--1\2----| 
E|--------------------------------| 

e|------------------------------------------------|---------------------------------------------------| 
B|------------------------------------------------|---------------------------------------------------| 
G|------------------------------------------------|---------------------------------------------------| 
D|--2--------2--------2--------2------------------|---2--------2--------2----------5-----5---5\7/5----|x2 
A|--2--------2--------2--------2--------1p0-------|---2--------2--------2----------5-----5---5\7/5----| 
E|--0--0--0--0--0--0--0--0--0--0--0--0-------3p0--|---0--0--0--0--0--0--0--0--0----3--0--3---3\5/3----| 


e|-----------------| 
B|-----------------| 
G|---------3--2----| 
D|----2----3--2----|x2 
A|-5--2----1--0----| 
E|-5--0------------| 

e|------------------------------|--------------------|| 
B|------------------------------|--------------------|| 
G|---2-----2-2-----2-2h3p2-0h2--|---2-----2-2-----2--|| 
D|---2-----2-2-----2-2h3p2-0h2--|---2-----2-2-----2--|| 
A|---0-----0-0-----0------------|---0-----0-0-----0--|| 
E|-----0-0-----0-0--------------|-----0-0-----0-0----|| 

e|---------------------|| 
B|---------------------|| 
G|---2-3-2-0-----------|| 
D|---2-3-2-0--3-2-0----||x2 
A|------------3-2-0-3--|| 
E|------------------3--|| 


e|-----------------------|------------------------| 
B|-----------------------|------------------------| 
G|-----------------------|------------------------| 
D|--------------5-----5--|---------------5h7p5----|x4 
A|---5h7--------5-----5--|--------2------5h7p5----| 
E|---0----0--0-----0-----|--0--0--0--0--0---------| 

e|----------------------------------------| 
B|----------------------------------------| 
G|--------------------------2\3/2p0-------| 
D|---5-----5-5-----5-5------2\3/2p0---2---| 
A|---5-----5-5-----5-5----------------2---| 
E|-----0-0-----0-0-----0-0------------0---| 



| x   Dead note 
| p   Pull-off 
| h   Hammer-on 
| ~   Vibrato 
| /   Slide up 
| \   Slide down 

************************************ 
  

top 5 | metallica
top thrash metal
Outras músicas do artista letras do(a) Metallica
5.
One
Top cifras »Top artistas »
Petaxxon Comunicação Online
Cifras.com.br - Melhor e mais completo site de cifras e tablaturas do Brasil
Mais de 1 milhão de acordes de músicas cadastradas desde 2003
As informações contidas no nosso site são colaborações de seus usuários e podem conter erros, sendo assim, não nos responsabilizamos sobre nenhuma destas.
close
menos
mais
close
Cor dos acordes:

Cor da letra:

 

save
close
close
 
redimensionar