Cifras e Tablaturas
Mick Thomson

Mick Thomson

Too Extreme For Slipknot

Cifras Cancelar Versão de Impressão Print

Mick Thomson - Too Extreme For Slipknot

Tom: A#

  • 0:00 / 0:00
  			Mick Thomson Too Extreme For Slipknot 
Tuning  A#    

Section 1 
 A#|------------------|  
 D#|------------------|  
 G#|.-10/-9-----------|  
 C#|--10/-9-5-6--7-8--|  
F |.-8-/-7-5-6--7-8--| 
 A#|--8-/-7-5-6--7-8--|  

 A#|----------------------------|  
 D#|----------------------------|  
 G#|--------9-------------------|  
 C#|--5-6-7-8-------------------|  
F |--5-6-7-8-10-9-8-7-11-10-9-8| 
 A#|--5-6-7-8-------------------|  
              T T T T T   T T T 
 A#|----------------------|  
 D#|----------------------|  
 G#|--10/-9-----------9/9-|  
 C#|--10/-9-5-6--7-8--9/9-|  
F |--8-/-7-5-6--7-8--8/7-| 
 A#|--8-/-7-5-6--7-8--8/7-|  

 A#|--------------------------------------|  
 D#|--------------------------------------|  
 G#|-------------------------------------.|  
 C#|--5-6-7-8-----------------------------|    Play Section 1 4X 
F |--5-6-7-8-10-9-8-7-11-10-9-8-10-9-8-7.| 
 A#|--5-6-7-8-----------------------------|  
              T T T T T   T T T T  T T T     

Section 2 

 A#|----------------------------|  
 D#|----------------------------|  
 G#|.-9-----10--------9---------|  
 C#|--9-----10--------9---------|  
F |.-7-----8---------7---------| 
 A#|--7-----8----0----7---------|  

 A#|---------------------------------------|  
 D#|---------------------------------------|  
 G#|--10----------------------------------.|  
 C#|--10-----------------------------------|    Play section 2 4X 
F |--8--------10-9-8-7-11-10-9-8-10-9-8-7.| 
 A#|--8------------------------------------|  
              T  T T T T   T T T  T T T T     

Section 3 

 A#|---------------------------------------|  
 D#|---------------------------------------|  
 G#|--10-----------------------------------|  
 C#|--10-----------------------------------|    
F |--8--------10-9-8-7-11--7-7-10-10------| 
 A#|--8------------------------------------|  
              T  T T T T   T T T  T            
Section 4 

 A#|-----------------------------------------|  
 D#|-----------------------------------------|  
 G#|.----------------------------------------|  
 C#|--------------------3-----8--------------|     
F |.-6-6-6-6--6-6-6-6--3-----8-----7-7-10-10| 
 A#|--------------------3-0-0-6-0-0----------|  
     T T T T  T T T T              T T  T T     
 A#|----------------------------------------------|  
 D#|---------------------------------------------.|  
 G#|----------------------------------------------|  Play Section 4 5X 
 C#|---------------------------------------------.|     
F |--6-6-6-6--6-6-9-9--6-6-9-9--6-6-8-8-7-7-10-7-| 
 A#|----------------------------------------------|  
     T T T T  T T T T  T T T T  T T T T T T T  T   

Section 5 
  
 A#|-----------------------------------------|  
 D#|-----------------------------------------|  
 G#|-----------------------------------------|  
 C#|------------------------------12/--------|     
F |--6-6-6-6--6-6-9-9--6-6-9-9---12/--------| 
 A#|------------------------------12/--------|  
     T T T T  T T T T  T T T T 

Section 6 

 A#|-----------------------------------------|  
 D#|-----------------------------------------|  
 G#|.----------------------------------------|  
 C#|-----------------------------------------|     
F |.-7-7-7-7--7-7-7-7--7-7-7-7--9-9-10-10---| 
 A#|-----------------------------------------|  
     T T T T  T T T T  T T T T  T T T  T     
 A#|------------------------------------------------|  
 D#|------------------------------------------------|  
 G#|.-----------------------------------------------|  
 C#|--9-9-9-9--9-9-9-9--9-9-9-9--10-10-9-9----------|     
F |.--------------------------------------10-10-9-9| 
 A#|------------------------------------------------|  
     T T T T  T T T T  T T T T  T  T  T T  T T  T T  
 A#|--------------------------------------|  
 D#|--------------------------------------|  
 G#|.-------------------------------------|  
 C#|--------------------------------------|     
F |.-6-6-6-6--6-6-6-6--6-6-6-6--7-7-9-9--| 
 A#|--------------------------------------|  
     T T T T  T T T T  T T T T  T T T T           
 A#|--------------------------------------|  
 D#|--------------------------------------|  
 G#|.------------------------------------.|  
 C#|-------------------7-7-9-7------------|    Play section 6X 
F |.--10-10-9-9-10-10---------10-9-7--5-.| 
 A#|--------------------------------------|  
      T  T  T T  T T  T T T T T T  T  T   

And the end on 
  
 A#|------------|  
 D#|------------|  
 G#|------------|  
 C#|------------|     
F |--7~~~~-----| 
 A#|------------|  
    	

enviado porenviado por: gustsilva
cifra enviadaCorrigida por: sem correções
logo top cifrasComente
ico música do artistaMúsicas deste artista
ico curtiuCurtiu?
ico destaqueDestaque
Petaxxon Comunicação Online

Cifras.com.br - Melhor e mais completo site de cifras e tablaturas do Brasil Mais de 1 milhão de acordes de músicas cadastradas desde 2003
As informações contidas no nosso site são colaborações de seus usuários e podem conter erros, sendo assim, não nos responsabilizamos sobre nenhuma destas.

close
menos
mais
close
Cor dos acordes:

Cor da letra:

close
Alinhar acordes a direita Alinhar acordes a esquerda Alinhar acordes em baixo Alinhar acordes no topo
close
  Mostrar todos os acordes Esconder acordes muito fáceis Esconder acordes fáceis Esconder acordes intermediários
redimensionar
glossário