Cifras e Tablaturas
Midwest Pen Pals

Midwest Pen Pals

My Castle Your Castle

Cifras Cancelar Versão de Impressão Print

Midwest Pen Pals - My Castle Your Castle

Tom: D

  • 0:00 / 0:00
  			
Intro: 
E |-------------------------------------------| 
C#|-------------------------------------------| 
A |-4-4h5p4--2-2-2-0-0------------------------| 
E |-0-0-0----0-0-0-0-0--4-4-4-5-5-2-2-2-2-----| 
A |-0-0-0---------------2-2-2-2-2-0-0-0-0-----| 
D |----------4-4-4-4-4--2-2-2-2-2-0-0-0-0-----| 

then it simplifies a bit 
C#|-----------------------------------------| 
A |-4-4-4--2-2-2-2-2------------------------| 
E |-0-0-0--0-0-0-0-0--4-4-4-4-4-2-2-2-2-----| 
A |-0-0-0-------------2-2-2-2-2-0-0-0-0-----| 
D |--------4-4-4-4-4--2-2-2-2-2-0-0-0-0-----| 

play a bunch of times and jam on the open strings chords 
E |----------------------------------| 
C#|-------0-0-0-0--------0-0-0-0-0---| 
A |-0-2-4-0-0-0-0--0-2-4-0-0-0-0-0---| 
E |-0-0-0-0-0-0-0--0-0-0-0-0-0-0-0---| 
A |-0-0-0-0-0-0-0--0-0-0-0-0-0-0-0---| 
D |-0-2-4-0-0-0-0--0-2-4-0-0-0-0-0---| 

E |-------------------------------------------4-4-4-5-5-5-5-5-5-5-5-5--| 
C#|-------------------------------3-3-3-5-5-5-0-0-0-0-0-0-0-0-0-0-0-0--| 
A |-------------------------4-4-4-0-0-0-0-0-0-0-0-0-0-0-0-0-0-0-0-0-0--| 
E |-2-2-2-4-4-4-5-5-5-7-7-7-0-0-0-0-0-0-0-0-0-0-0-0-0-0-0-0-0-0-0-0-0--| 
A |-0-0-0-0-0-0-0-0-0-0-0-0--------------------------------------------| 
D |-0-0-0-0-0-0-0-0-0-0-0-0-4-4-4-4-4-4-4-4-4-4-4-4-4-4-4-4-4-4-4-4-4--| 

I apologize because this looks really messy (well, the music is messy) 
but essentially the root chords go 0 to 4 on the D string 
and he messes around with the notes, this is a rough outline. 

E |---------------------------------------------------| 
C#|-0-0-0-0-0-0-0-0-0-0-0-0-0-0-0-3-5-0-0-0-0-3-5-0---| 
A |-0-0-2-2-0-4-0-0-2-2-0-4-2-0-0-0-0-0-2-0-0-0-0-0---| 
E |-2-0-0-0-0-0-2-0-0-0-0-0-0-0-0-0-0-0-0-0-0-0-0-0---| 
A |-0-0-0-0-0-0-0-0-0-0-0-0-0-0-0-0-0-0-0-0-0-0-0-0---| 
D |-0-0-0-0-0-0-0-0-0-0-0-0-4-4-4-4-4-4-4-4-4-4-4-4---| 

do this and then make it more fluent to end the song 
E |------------------------------| 
C#|------------------------------| 
A |-2-2-4--2-2-4--2-2-4--2-2-4---| 
E |-0-0-0--0-0-0--0-0-0--0-0-0---| 
A |-0-0-0--0-0-0--0-0-0--0-0-0---| 
D |---------------0-0-0--0-0-0---| 

"fuck!" 
    	

enviado porenviado por: ang-letra
cifra enviadaCorrigida por: sem correções
logo top cifrasComente
ico música do artistaMúsicas deste artista
ico curtiuCurtiu?
ico destaqueDestaque
Petaxxon Comunicação Online

Cifras.com.br - Melhor e mais completo site de cifras e tablaturas do Brasil Mais de 1 milhão de acordes de músicas cadastradas desde 2003
As informações contidas no nosso site são colaborações de seus usuários e podem conter erros, sendo assim, não nos responsabilizamos sobre nenhuma destas.

close
menos
mais
close
Cor dos acordes:

Cor da letra:

close
Alinhar acordes a direita Alinhar acordes a esquerda Alinhar acordes em baixo Alinhar acordes no topo
close
  Mostrar todos os acordes Esconder acordes muito fáceis Esconder acordes fáceis Esconder acordes intermediários
redimensionar
glossário