Cifras e Tablaturas
Ministri

Ministri

Balla Quello Che Cè

Cifras Cancelar Versão de Impressão

Ministri - Balla Quello Che Cè

Tom:

  			Intro 
e|---x--x--x--x---x--x--x--x--x---x---x---x----x---x--x--x--x-----------------| 
B|---x--x--x--x---x--x--x--x--x---x---x---x----x---x--x--x--x-----------------| 
G|---9--9--9--7---9--9--7--7--9---11--7---11---11--9--9--9--7-----------------|x2 
D|---5--5--5--5---5--5--5--5--5---9---5---9----9---7--7--7--5-----------------| 
A|---5--5--5--5---5--5--5--5--5---9---5---9----9---7--7--7--5-----------------| 
E|---x--x--x--x---x--x--x--x--x---x---x---x----x---x--x--x--x-----------------| 

e|---x--x--x--x---x--x--x--x--x---x---x---x----x---x--x--x--------------------| 
B|---x--x--x--x---x--x--x--x--x---x---x---x----x---x--x--x--------------------| 
G|---9--9--9--7---9--9--7--7--9---11--7---11---11--9--9--9--------------------|  
D|---5--5--5--5---5--5--5--5--5---9---5---9----9---7--7--7--------------------| 
A|---5--5--5--5---5--5--5--5--5---9---5---9----9---7--7--7--------------------| 
E|---x--x--x--x---x--x--x--x--x---x---x---x----x---x--x--x--------------------| 

Verse 
e|---------------------------------------------------------------------------| 
B|-------------------(tutto in palm mute)------------------------------------| 
G|---------------------------------------------------------------------------| 
D|---------7--------7-----7------------------7--------7-----7----------------|x2 
A|---5--5-----5--5-----5-----5---------5--5-----5--5-----5-----5-------------| 
E|---------------------------------------------------------------------------| 
      Era un periodo difficile          C'erano brutte canzoni 
e|---------------------------------------------------------------------------| 
B|---------------------------------------------------------------------------| 
G|---------------------------------------------------------------------------| 
D|---------9--------9-----9-------------------11--------11----11-------------| 
A|---------------------------------------------------------------------------| 
E|---5--5-----5--5-----5-----5---------7--7-------7--7------7-----7----------| 
            Un montepremi gigante        Giganti le superstizioni 

e|---------------------------------------------------------------------------| 
B|---------------------------------------------------------------------------| 
G|---------------------------------------------------------------------------| 
D|---------7--------7-----7--------------------------------------------------| 
A|---5--5-----5--5-----5-----5-----------------------------------------------| 
E|---------------------------------------------------------------------------| 

e|---------------------------------------------------------------------------| 
B|---------------------------------------------------------------------------| 
G|---------------------------------------------------------------------------| 
D|---------7--------7-----7------------------7--------7-----7----------------|x2 
A|---5--5-----5--5-----5-----5---------5--5-----5--5-----5-----5-------------| 
E|---------------------------------------------------------------------------| 
      Era un periodo difficile          Era una strada sbagliata 

e|---------------------------------------------------------------x------x----| 
B|---------------------------------------------------------------x------x----| 
G|---------------------------------------------------------------7------11---| 
D|--------9--------9-----9----------------11--------11----11-----7-x6---11-x6| 
A|---------------------------------------------------------------5------9----| 
E|--5--5-----5--5-----5-----5------7--7-------7--7------7-----7--x------x----| 
            Quanto poteva durare?       Quanto poteva è durata 

e|---------------------------------------------------------------------------| 
B|---------------------------------------------------------------------------| 
G|---------------------------------------------------------------------------| 
D|-------4--4--4--4--4--4-------------7--7--7--7--7--7-----------------------| 
A|-------2--2--2--2--2--2-------------5--5--5--5--5--5-----------------------| 
E|---------------------------------------------------------------------------| 
     Se non vuoi perder la voce           Prova a parlare più piano 

e|---------------------------------------------------------------------------| 
B|---------------------------------------------------------------------------| 
G|----7--7--7--7----9--9--9--9----11--11-11--11----9--9--9--9----------------| 
D|----5--5--5--5----7--7--7--7----9---9--9---9-----7--7--7--7----------------| 
A|----5--5--5--5----7--7--7--7----9---9--9---9-----7--7--7--7----------------| 
E|----5--5--5--5----7--7--7--7----9---9--9---9-----7--7--7--7----------------| 
       E balla quello che c'è       E balla quello che c'era 

e|---------------------------------------------------------------------------| 
B|---------------------------------------------------------------------------| 
G|----------------------------------7--7--7--7-------------------------------| 
D|-----7--7--7--7--7--7-------------5--5--5--5-------------------------------| 
A|-----5--5--5--5--5--5-------------5--5--5--5-------------------------------| 
E|----------------------------------5--5--5--5-------------------------------| 
      Ora che hai perso la voce          Prova a parlare più piano 

e|---------------------------------------------------------------------------| 
B|---------------------------------------------------------------------------| 
G|-----4--4--4--4---------------------7--7--7--7--7--7-----------------------| 
D|-----4--4--4--4---------------------7--7--7--7--7--7-----------------------| 
A|-----4--4--4--4---------------------7--7--7--7--7--7-----------------------| 
E|-----4--4--4--4---------------------7--7--7--7--7--7-----------------------| 
          E balla quello che c'è     E balla quello che c'è 

e|---x--x--x--x---x--x--x--x--x---x---x---x----x---x--x--x--x-----------------| 
B|---x--x--x--x---x--x--x--x--x---x---x---x----x---x--x--x--x-----------------| 
G|---9--9--9--7---9--9--7--7--9---11--7---11---11--9--9--9--7-----------------|x2 
D|---5--5--5--5---5--5--5--5--5---9---5---9----9---7--7--7--5-----------------| 
A|---5--5--5--5---5--5--5--5--5---9---5---9----9---7--7--7--5-----------------| 
E|---x--x--x--x---x--x--x--x--x---x---x---x----x---x--x--x--x-----------------| 
           E balla quello che c'è 

e|---------------------------------------------------------------------------| 
B|---------------------------------------------------------------------------| 
G|---------------------------------------------------------------------------| 
D|---------7--------7-----7------------------7--------7-----7----------------|x2 
A|---5--5-----5--5-----5-----5---------5--5-----5--5-----5-----5-------------| 
E|---------------------------------------------------------------------------| 
      Era un periodo difficile       C'erano poche fontane 

e|---------------------------------------------------------------------------| 
B|---------------------------------------------------------------------------| 
G|---------------------------------------------------------------------------| 
D|---------9--------9-----9-------------------11--------11----11-------------| 
A|---------------------------------------------------------------------------| 
E|---5--5-----5--5-----5-----5---------7--7-------7--7------7-----7----------| 
            Compravi l'acqua nel vetro   E scambiavi il vetro col pane 

e|---------------------------------------------------------------------------| 
B|---------------------------------------------------------------------------| 
G|---------------------------------------------------------------------------| 
D|---------7--------7-----7--------------------------------------------------| 
A|---5--5-----5--5-----5-----5-----------------------------------------------| 
E|---------------------------------------------------------------------------| 

e|---------------------------------------------------------------------------| 
B|---------------------------------------------------------------------------| 
G|---------------------------------------------------------------------------| 
D|---------7--------7-----7------------------7--------7-----7----------------|x2 
A|---5--5-----5--5-----5-----5---------5--5-----5--5-----5-----5-------------| 
E|---------------------------------------------------------------------------| 
      Ti preoccupavi dei missili      Quelli abbastanza lontani 

e|---------------------------------------------------------------x------x----| 
B|---------------------------------------------------------------x------x----| 
G|---------------------------------------------------------------7------11---| 
D|--------9--------9-----9----------------11--------11----11-----7-x6---11-x6| 
A|---------------------------------------------------------------5------9----| 
E|--5--5-----5--5-----5-----5------7--7-------7--7------7-----7--x------x----| 
       Dormivi solo 6 ore         Ti tremavano le mani 

e|---------------------------------------------------------------------------| 
B|---------------------------------------------------------------------------| 
G|---------------------------------------------------------------------------| 
D|-------4--4--4--4--4--4-------------7--7--7--7--7--7-----------------------| 
A|-------2--2--2--2--2--2-------------5--5--5--5--5--5-----------------------| 
E|---------------------------------------------------------------------------| 
        Ora che hai perso la voce      Prova a parlare più piano 

e|---------------------------------------------------------------------------| 
B|---------------------------------------------------------------------------| 
G|----7--7--7--7----9--9--9--9----11--11-11--11----9--9--9--9----------------| 
D|----5--5--5--5----7--7--7--7----9---9--9---9-----7--7--7--7----------------| 
A|----5--5--5--5----7--7--7--7----9---9--9---9-----7--7--7--7----------------| 
E|----5--5--5--5----7--7--7--7----9---9--9---9-----7--7--7--7----------------| 
       E balla quello che c'è       E balla quello che c'era 

e|---------------------------------------------------------------------------| 
B|---------------------------------------------------------------------------| 
G|----------------------------------7--7--7--7-------------------------------| 
D|-----7--7--7--7--7--7-------------5--5--5--5-------------------------------| 
A|-----5--5--5--5--5--5-------------5--5--5--5-------------------------------| 
E|----------------------------------5--5--5--5-------------------------------| 
      Ora che hai perso la voce          Prova a parlare più piano 

e|---------------------------------------------------------------------------| 
B|---------------------------------------------------------------------------| 
G|-----4--4--4--4---------------------7--7--7--7--7--7-----------------------| 
D|-----4--4--4--4---------------------7--7--7--7--7--7-----------------------| 
A|-----4--4--4--4---------------------7--7--7--7--7--7-----------------------| 
E|-----4--4--4--4---------------------7--7--7--7--7--7-----------------------| 
          E balla quello che c'è     E balla quello che c'è  

e|---x--x--x--x---x--x--x--x--x---x---x---x----x---x--x--x--x-----------------| 
B|---x--x--x--x---x--x--x--x--x---x---x---x----x---x--x--x--x-----------------| 
G|---9--9--9--7---9--9--7--7--9---11--7---11---11--9--9--9--7-----------------|x2 
D|---5--5--5--5---5--5--5--5--5---9---5---9----9---7--7--7--5-----------------| 
A|---5--5--5--5---5--5--5--5--5---9---5---9----9---7--7--7--5-----------------| 
E|---x--x--x--x---x--x--x--x--x---x---x---x----x---x--x--x--x-----------------| 
                         E balla quello che c'è  

e|---------------------------------------------------------------------------| 
B|---------------------------------------------------------------------------| 
G|---------------------------------------------------------------------------| 
D|---7-7--6-6---7-7--6-6---14-14-12-12--11-11--12--11-12---------------------| 
A|---5-5--4-4---5-5--4-4---12-12-10-10--9--9---10--9--10---------------------| 
E|---------------------------------------------------------------------------| 

e|---------------------------------------------------------------------------| 
B|---------------------------------------------------------------------------| 
G|---------------------------------------------------------------------------| 
D|---7-7--6-6---7-7--6-6---14-14-14-14--12-12--11-11--12--5------------------| 
A|---5-5--4-4---5-5--4-4---12-12-12-12--10-10--9--9---10--7------------------| 
E|---------------------------------------------------------------------------| 

e|---------------------------------------------------------------------------| 
B|-------7---8---9---10-----10---9---8---7-----------------------------------| 
G|---------------------------------------------------------------------------|x4 
D|---------------------------------------------------------------------------| 
A|---------------------------------------------------------------------------| 
E|---------------------------------------------------------------------------| 
Per quanto fosse difficile Chi non sapeva cantare Aveva mille pulsanti Per riuscire a farsi ascoltare 
E noi lì a disegnar dinamite Noi a bloccare le uscite Le nostre anime salve Ma una noia mortale 

e|---------------------------------------------------------------------------| 
B|---------------------------------------------------------------------------| 
G|---------------------------------------------------------------------------| 
D|-------4--4--4--4--4--4-------------7--7--7--7--7--7-----------------------| 
A|-------2--2--2--2--2--2-------------5--5--5--5--5--5-----------------------| 
E|---------------------------------------------------------------------------| 
        Ora che hai perso la voce      Prova a parlare più piano 

e|---------------------------------------------------------------------------| 
B|---------------------------------------------------------------------------| 
G|----7--7--7--7----9--9--9--9----11--11-11--11----9--9--9--9----------------| 
D|----5--5--5--5----7--7--7--7----9---9--9---9-----7--7--7--7----------------| 
A|----5--5--5--5----7--7--7--7----9---9--9---9-----7--7--7--7----------------| 
E|----5--5--5--5----7--7--7--7----9---9--9---9-----7--7--7--7----------------| 
       E balla quello che c'è       E balla quello che c'era 

e|---------------------------------------------------------------------------| 
B|---------------------------------------------------------------------------| 
G|----------------------------------7--7--7--7-------------------------------| 
D|-----7--7--7--7--7--7-------------5--5--5--5-------------------------------| 
A|-----5--5--5--5--5--5-------------5--5--5--5-------------------------------| 
E|----------------------------------5--5--5--5-------------------------------| 
      Ora che hai perso la voce          Prova a parlare più piano 

e|---------------------------------------------------------------------------| 
B|---------------------------------------------------------------------------| 
G|---------------------------------------------------------------------------| 
D|--4-4-4-4--4-4-4-4--5-5-5-5--12-12-12-12--9-9-9---7-7--/-\-----------------| 
A|--2-2-2-2--6-6-6-6--7-7-7-7--10-10-10-10--7-7-7---7-7--/-\-----------------| 
E|--------------------------------------------------7-7--/-\-----------------| 
           E balla quello che c'è     E balla quello che c'è   

e|---x--x--x--x---x--x--x--x--x---x---x---x----x---x--x--x--x-----------------| 
B|---x--x--x--x---x--x--x--x--x---x---x---x----x---x--x--x--x-----------------| 
G|---9--9--9--7---9--9--7--7--9---11--7---11---11--9--9--9--7-----------------|x2 
D|---5--5--5--5---5--5--5--5--5---9---5---9----9---7--7--7--5-----------------| 
A|---5--5--5--5---5--5--5--5--5---9---5---9----9---7--7--7--5-----------------| 
E|---x--x--x--x---x--x--x--x--x---x---x---x----x---x--x--x--x-----------------| 

************************************ 

| x  Dead note 
| /  Slide up 
| \  Slide down 

************************************ 
    	
fixar
fixar inscrever-se

enviado porenviado por: adalgomes
cifra enviadaCorrigida por: sem correções
logo top cifrasComente
ico música do artistaMúsicas deste artista
ico curtiuCurtiu?
ico destaqueDestaque
Petaxxon Comunicação Online

Cifras.com.br - Melhor e mais completo site de cifras e tablaturas do Brasil Mais de 1 milhão de acordes de músicas cadastradas desde 2003
As informações contidas no nosso site são colaborações de seus usuários e podem conter erros, sendo assim, não nos responsabilizamos sobre nenhuma destas.

close
menos
mais
close
Cor dos acordes:

Cor da letra:

close
Alinhar acordes a direita Alinhar acordes a esquerda Alinhar acordes em baixo Alinhar acordes no topo
close
  Mostrar todos os acordes Esconder acordes muito fáceis Esconder acordes fáceis Esconder acordes intermediários
redimensionar
glossário