Cifras e Tablaturas
Misc Cartoons

Misc Cartoons

12th Street Rag From Spongebob

Cifras Cancelar Versão de Impressão
cifras

Misc Cartoons - 12th Street Rag From Spongebob

fixar na tela  
Exibindo: vídeo-aula ver clipes redimensionar

Tom:

  
Guitar 
e|--7/12-12-12---7/10-10-10---7/9-9-9---12-----------------------------------| 
B|--------------------------------------------12h14p12-----------------------| 
G|-----------------------------------------13----------13-12-12-12-11--------| 
D|---------------------------------------------------------------------------| 
A|---------------------------------------------------------------------------| 
E|---------------------------------------------------------------------------| 

e|---------------------------------------------------------------------------| 
B|--12h14p12---12h14p12---12h14p12-------------------------------------------| 
G|----------------------------------13---------------------------------------| 
D|---------------------------------------------------------------------------| 
A|---------------------------------------------------------------------------| 
E|---------------------------------------------------------------------------| 

Ukulele 
A|--3/7-7-7---3/5-5-5---4/3-3-3---7------------------------------------------| 
E|--------------------------------------7h9p7--------------7h9p7---7h9p7-----| 
C|----------------------------------8----------8-7-7-7\6---------------------| 
G|---------------------------------------------------------------------------| 

A|---------------------------------------------------------------------------| 
E|--7h9p7--------------------------------------------------------------------| 
C|---------8-----------------------------------------------------------------| 
G|---------------------------------------------------------------------------| 


************************************ 

| /  Slide up 
| h  Hammer-on 
| p  Pull-off 
| \  Slide down 

************************************ 
  

top 5 | misc cartoons
top infantis
Outras músicas do artista letras do(a) Misc Cartoons
Top cifras »Top artistas »
Petaxxon Comunicação Online
Cifras.com.br - Melhor e mais completo site de cifras e tablaturas do Brasil
Mais de 1 milhão de acordes de músicas cadastradas desde 2003
As informações contidas no nosso site são colaborações de seus usuários e podem conter erros, sendo assim, não nos responsabilizamos sobre nenhuma destas.
close
menos
mais
close
Cor dos acordes:

Cor da letra:

 

save
close
close
 
redimensionar