Cifras e Tablaturas
Misc Cartoons

Misc Cartoons

Dragon Ball Z - Hikari No Will Power - Ultimate Battle 22 Version

Cifras Cancelar Versão de Impressão
cifras

Misc Cartoons - Dragon Ball Z - Hikari No Will Power - Ultimate Battle 22 Version

fixar na tela  
Exibindo: vídeo-aula ver clipes redimensionar

Tom:

  
Intro 

e|---------------------------------------------------------------------------| 
B|---0-1-----0-1-----0-1---1-0---0---------------0-1-----0-1-----0-1---1-3-1-| 
G|-2-------2-------2-----------2---0---0---0---2-------2-------2-------------| 
D|-----------------------------------0---3---2-------------------------------| 
A|-------0-------0-----------------------3-----------0-------0---------------| 
E|-----------------------1-------3-----------------------------------1-------| 

e|---------------------------------------------------------------------------| 
B|-0-------0-1p0-------------------------------------------------------------| 
G|-----0-2-------0-----------------------------------------------------------| 
D|---0-------------2---------------------------------------------------------| 
A|---------------------------------------------------------------------------| 
E|-3-------0-----------------------------------------------------------------| 

e|---------------------------------------------------------------------------| 
B|---------------------------------------------------------------------------| 
G|---------------------------------------------------------------------------| 
D|-2-2-2-2-2-2-2--8--7--5--2-2-2-2-2-2-2---5--7--0---------------------------| 
A|-0-0-0-0-0-0-0--6--5--3--0-0-0-0-0-0-0---3--5--x---------------------------| 
E|-----------------------------------------------3---------------------------| 

e|---------------------------------------------------------------------------| 
B|---------------------------------------------------------------------------| 
G|---------------------------------------------------------------------------| 
D|-2-2-2-2-2-2-2--8--7--5--2-2-2-2-2-2-2---5--7--0---------------------------| 
A|-0-0-0-0-0-0-0--6--5--3--0-0-0-0-0-0-0---3--5--x---------------------------| 
E|-----------------------------------------------3---------------------------| 


Verse 

e|-------------------------/17-----------------------------------------------| 
B|-17-17-13-15-13-17-13-15-----17-15-13----17-15-17-15-----------------------| 
G|--------------------------------------14-------------16-14-12--------------| 
D|---------------------------------------------------------------------------| 
A|---------------------------------------------------------------------------| 
E|---------------------------------------------------------------------------| 

e|-------------------------/17----------------15-17-20-19-17-19--------------| 
B|-17-17-13-15-13-17-13-15-----17-15-17-18-18--------------------------------| 
G|---------------------------------------------------------------------------| 
D|---------------------------------------------------------------------------| 
A|---------------------------------------------------------------------------| 
E|---------------------------------------------------------------------------| 


Bridge 

e|-15-15-15-17-14----------12-13-13-13-15-12-------15-15-15-17-14------------| 
B|----------------17-15-15-------------------15-13----------------17-15-15-15| 
G|---------------------------------------------------------------------------| 
D|---------------------------------------------------------------------------| 
A|---------------------------------------------------------------------------| 
E|---------------------------------------------------------------------------| 

e|---------------------------------------------------------------------------| 
B|-17------------------------------------------------------------------------| 
G|---------------------------------------------------------------------------| 
D|---------------------------------------------------------------------------| 
A|---------------------------------------------------------------------------| 
E|---------------------------------------------------------------------------| 

Verse 

e|-------------------------/17-----------------------------------------------| 
B|-17-17-13-15-13-17-13-15-----17-15-13----17-15-17-15-----------------------| 
G|--------------------------------------14-------------16-14-12--------------| 
D|---------------------------------------------------------------------------| 
A|---------------------------------------------------------------------------| 
E|---------------------------------------------------------------------------| 

e|-------------------------/17----------------15-17-20-19-17-19--------------| 
B|-17-17-13-15-13-17-13-15-----17-15-17-18-18--------------------------------| 
G|---------------------------------------------------------------------------| 
D|---------------------------------------------------------------------------| 
A|---------------------------------------------------------------------------| 
E|---------------------------------------------------------------------------| 

Bridge V2 

e|-15-15-15-17-14----------12-13-13-13-15-12-------15-15-15-17-14------------| 
B|----------------17-15-15-------------------15-13----------------17-15-15-15| 
G|---------------------------------------------------------------------------| 
D|---------------------------------------------------------------------------| 
A|---------------------------------------------------------------------------| 
E|---------------------------------------------------------------------------| 

e|---------------------------------------------------------------------------| 
B|-17-17-17-19---------------------------------------------------------------| 
G|---------------------------------------------------------------------------| 
D|---------------------------------------------------------------------------| 
A|---------------------------------------------------------------------------| 
E|---------------------------------------------------------------------------| 

Chorus 

e|-19-21-22-19-21-22-19-21-22-22-21-19-21------------------------------------| 
B|----------------------------------------22----22-20-22-19------------------| 
G|-------------------------------------------21------------------------------| 
D|---------------------------------------------------------------------------| 
A|---------------------------------------------------------------------------| 
E|---------------------------------------------------------------------------| 

e|-19-21-22-19-21-22-19-21-22-22-24-22-21------------------------------------| 
B|---------------------------------------------------------------------------| 
G|---------------------------------------------------------------------------| 
D|---------------------------------------------------------------------------| 
A|---------------------------------------------------------------------------| 
E|---------------------------------------------------------------------------| 

e|-19-21-22-19-21-22-19-21-22-22-21-19-21------------------------------------| 
B|----------------------------------------22----22-20-22-19------------------| 
G|-------------------------------------------21------------------------------| 
D|---------------------------------------------------------------------------| 
A|---------------------------------------------------------------------------| 
E|---------------------------------------------------------------------------| 

e|-19-21-22-19-21-22-19-21-22-22-24-22-21-22-21-------19---------------------| 
B|----------------------------------------------22-19------------------------| 
G|---------------------------------------------------------------------------| 
D|---------------------------------------------------------------------------| 
A|---------------------------------------------------------------------------| 
E|---------------------------------------------------------------------------| 

e|-19-21-22-19-21-22-19-21-22-22-21-19-21------------------------------------| 
B|----------------------------------------22----22-20-22-19------------------| 
G|-------------------------------------------21------------------------------| 
D|---------------------------------------------------------------------------| 
A|---------------------------------------------------------------------------| 
E|---------------------------------------------------------------------------| 

e|-19-21-22-19-21-22-19-21-22-22-24-22-21-22-21-------19---------------------| 
B|----------------------------------------------22-19------------------------| 
G|---------------------------------------------------------------------------| 
D|---------------------------------------------------------------------------| 
A|---------------------------------------------------------------------------| 
E|---------------------------------------------------------------------------| 

************************************ 

| x   Dead note 
| p   Pull-off 
| /   Slide up 

************************************ 
  

top 5 | misc cartoons
top infantis
Outras músicas do artista letras do(a) Misc Cartoons
Top cifras »Top artistas »
Petaxxon Comunicação Online
Cifras.com.br - Melhor e mais completo site de cifras e tablaturas do Brasil
Mais de 1 milhão de acordes de músicas cadastradas desde 2003
As informações contidas no nosso site são colaborações de seus usuários e podem conter erros, sendo assim, não nos responsabilizamos sobre nenhuma destas.
close
menos
mais
close
Cor dos acordes:

Cor da letra:

 

save
close
close
 
redimensionar