Cifras e Tablaturas
Misc Cartoons

Misc Cartoons

Fullmetal Alchemist Brotherhood - Main Theme The Alchemist

Cifras Cancelar Versão de Impressão
cifras

Misc Cartoons - Fullmetal Alchemist Brotherhood - Main Theme The Alchemist

fixar na tela  
Exibindo: vídeo-aula ver clipes redimensionar
  

Chorus 
A|--3--4--3--6--4--3---3--10-3--4--3--6--4--3--1--8---| 
E|----------------------------------------------------| 
C|----------------------------------------------------| 
G|----------------------------------------------------| 

A|1--3--1--4--3--1--3--8--11-10-11-10-13-11-10-8--7---| 
E|----------------------------------------------------| 
C|----------------------------------------------------| 
G|----------------------------------------------------| 

A|8--7--8--10-8--11-10-2--3--5--2--3--6--5--12-10-9---| 
E|----------------------------------------------------| 
C|----------------------------------------------------| 
G|----------------------------------------------------| 

A|10-12-10-8--7--7--5--4--5--7--5--3--2--2--0-----0---| 
E|---------------------------------------------4------| 
C|----------------------------------------------------| 
G|----------------------------------------------------| 

A|0--12-10-9--10-10-8--7--8--8--7--6--7--5--4--3--4--3 
E|----------------------------------------------------| 
C|----------------------------------------------------| 
G|----------------------------------------------------| 

A|6--4--3--3--10-3--4--3--6--4--3--1--8--1--3--1--4--3| 
E|----------------------------------------------------| 
C|----------------------------------------------------| 
G|----------------------------------------------------| 

A|1--3--8--11-10-11-10-13-11-10-8--7--8---------------| 
E|------------------------------------------1--4--1---| 
C|---------------------------------------0-----------0| 
G|----------------------------------------------------| 

A|----------------| 
E|------1--------1| 
C|---1-----1-----0| 
G|3-----------3--1| 
  

top 5 | misc cartoons
top infantis
Outras músicas do artista letras do(a) Misc Cartoons
Top cifras »Top artistas »
Petaxxon Comunicação Online
Cifras.com.br - Melhor e mais completo site de cifras e tablaturas do Brasil
Mais de 1 milhão de acordes de músicas cadastradas desde 2003
As informações contidas no nosso site são colaborações de seus usuários e podem conter erros, sendo assim, não nos responsabilizamos sobre nenhuma destas.
close
menos
mais
close
Cor dos acordes:

Cor da letra:

 

save
close
close
 
redimensionar