Cifras e Tablaturas
Misc Cartoons

Misc Cartoons

Naruto Ost - Loneliness Alone

Cifras Cancelar Versão de Impressão
cifras

Misc Cartoons - Naruto Ost - Loneliness Alone

fixar na tela  
Exibindo: vídeo-aula ver clipes redimensionar

Tom:

  
Main Riff 
e|---------3-------------3-----------------3-------------3-------0-----------| 
B|-----0-1-----------0-1-----3---------0-1-----------0-1-----3---------3-----| 
G|---2-------------------------------2-------------------------2-------------| 
D|-----------------2-------------------------------2-------------------------| 
A|---------------------------------------------------------------------------| 
E|---------------------------------------------------------------------------| 

e|---3-0-------5---3-----5-0-------0-------3-0-------5---7---3-5-------------| 
B|-------------------------------------3-------------------------------------| 
G|---------------------------------------------------------------------------| 
D|---------------------------------------------------------------------------| 
A|---------------------------------------------------------------------------| 
E|---------------------------------------------------------------------------| 

e|---0-0-0-0-------------------0-0-0-0-------3-----------0-0-0-0-------------| 
B|-----------3-3-1-3---0---------------3-3-1-----3---0-----------3-1-3-------| 
G|---------------------------------------------------------------------------| 
D|---------------------------------------------------------------------------| 
A|---------------------------------------------------------------------------| 
E|---------------------------------------------------------------------------| 

e|---3---------------------------0-------0-----------3-0-------5---3---5-0---| 
B|-----3---0-----0-1-1---0-1-3-----------------3-----------------------------| 
G|-------------2---------------------2---------------------------------------| 
D|---------------------------------------------------------------------------| 
A|---------------------------------------------------------------------------| 
E|---------------------------------------------------------------------------| 

e|---0-------3-0-------5---7---3-5------5---7-----3-5-----3-------------3----| 
B|-------3--------------------------------------------0-1-----------0-1-----3| 
G|----------------------------------------------------------------2----------| 
D|---------------------------------------------------------------------------| 
A|---------------------------------------------------------------------------| 
E|---------------------------------------------------------------------------| 

e|---------3-------------3-----------------3-------------3-------------------| 
B|-----0-1-----------0-1-----3---------0-1-----------0-1-----3---------------| 
G|---2-------------------------------2---------------------------------------| 
D|-----------------2-------------------------------2-------------------------| 
A|---------------------------------------------------------------------------| 
E|---------------------------------------------------------------------------| 
  

top 5 | misc cartoons
top infantis
Outras músicas do artista letras do(a) Misc Cartoons
Top cifras »Top artistas »
Petaxxon Comunicação Online
Cifras.com.br - Melhor e mais completo site de cifras e tablaturas do Brasil
Mais de 1 milhão de acordes de músicas cadastradas desde 2003
As informações contidas no nosso site são colaborações de seus usuários e podem conter erros, sendo assim, não nos responsabilizamos sobre nenhuma destas.
close
menos
mais
close
Cor dos acordes:

Cor da letra:

 

save
close
close
 
redimensionar