Cifras e Tablaturas
Misc Cartoons

Misc Cartoons

Pokémon - Gotta Catch 'em All - Tema De Abertura

Cifras Cancelar Versão de Impressão
cifras

Misc Cartoons - Pokémon - Gotta Catch 'em All - Tema De Abertura

fixar na tela  
Exibindo: vídeo-aula ver clipes redimensionar
  
Pokémon Theme Song  

Intro  

e|-15-------------------------------------------------------------  
B|-18b19----------------------------------------------------------  
G|----------------------------------------------------------------  
D|----------------------------------------------------------------  
A|----------------------------------------------------------------  
E|----------------------------------------------------------------  


Verse  

e|----------------------------------------------------------------  
B|----------------------------------------------------------------  
G|-5/7-7-7-7--5-3-2--5/7-7--5\3/5---------------------------------  
D|----------------------------------------------------------------  
A|----------------------------------------------------------------  
E|----------------------------------------------------------------  

e|----------------------------------------------------------------  
B|----------------------------------------------------------------  
G|-/8-8-8-8--8-7--5--3--3-5-7--7-5-3-3/7~-------------------------  
D|----------------------------------------------------------------  
A|----------------------------------------------------------------  
E|----------------------------------------------------------------  

e|----------------------------------------------------------------  
B|----------------------------------------------------------------  
G|-5/7-7-7--5-3-2--5/7-7--5-3-3/5~--------------------------------  
D|----------------------------------------------------------------  
A|----------------------------------------------------------------  
E|----------------------------------------------------------------  

e|----------------------------------------------------------------  
B|----------------------------------------------------------------  
G|-3/8-8-8-8--8-10-7--5--3--3-5-7--7-5-3-3/7~---------------------  
D|----------------------------------------------------------------  
A|----------------------------------------------------------------  
E|----------------------------------------------------------------  


Chorus  

e|----------------------------------------------------------------  
B|---6-8-----6-8--6h8p6-----------8-10-11-10-8/6------------------  
G|-7-------8-------------7-5-3--8---------------------------------  
D|----------------------------------------------------------------  
A|----------------------------------------------------------------  
E|----------------------------------------------------------------  

e|----------------------------------------------------------------  
B|---6-8--6/8-8\6-8p6---------------------------------------------  
G|-7------------------7--3-5-7-7-5-3-5/7--------------------------  
D|----------------------------------------------------------------  
A|----------------------------------------------------------------  
E|----------------------------------------------------------------  

e|----------------------------------------------------------------  
B|---6-8-----6-8--6/8\6-6/8\6--6-8-10-11-10-8-6-------------------  
G|-7-------8------------------------------------------------------  
D|----------------------------------------------------------------  
A|----------------------------------------------------------------  
E|----------------------------------------------------------------  


e|----------------------------------------------------------------  
B|----10/11-11-11----10/11-11--11b12-11b12-11b12r11~--------------  
G|-/8-------------10----------------------------------------------  
D|----------------------------------------------------------------  
A|----------------------------------------------------------------  
E|----------------------------------------------------------------  



e|----------------------------------------------------------------  
B|---6-8-8---6-8/11p8---------------------------------------------  
G|-7-------8------------------------------------------------------  
D|----------------------------------------------------------------  
A|----------------------------------------------------------------  
E|----------------------------------------------------------------  


Bridge  

e|----------------------------------------------------------------  
B|----------------6-8-8/10------10/13-10-10/8----13p10------------  
G|-5/7\5p3----7-7-----------9-9---------------9~------------------  
D|---------5------------------------------------------------------  
A|----------------------------------------------------------------  
E|----------------------------------------------------------------  

Solo  

e|---------------18-17-15-----------------------------------------  
B|----------------------------------------------------------------  
G|---15----15-14-----------17b19-17-15----15-17-------------------  
D|-15----15-----------------------------17-------17---------------  
A|----------------------------------------------------------------  
E|----------------------------------------------------------------  

e|----------------------------------------------------------------  
B|--------------------------------------15-16-16b18-16-15---------  
G|-----------------------------14-15-17-------------------15------  
D|----------------------15/17~-------------------------------15---  
A|-13h15-13/15-13/15\13-------------------------------------------  
E|----------------------------------------------------------------  

e|----------------------------------------17-20-20b22-20b22-20b22-  
B|-------15-18-17-------15-18-17----17-18-------------------------  
G|-15h17----------15h17----------17-------------------------------  
D|----------------------------------------------------------------  
A|----------------------------------------------------------------  
E|----------------------------------------------------------------  

  

top 5 | misc cartoons
top infantis
Outras músicas do artista letras do(a) Misc Cartoons
Top cifras »Top artistas »
Petaxxon Comunicação Online
Cifras.com.br - Melhor e mais completo site de cifras e tablaturas do Brasil
Mais de 1 milhão de acordes de músicas cadastradas desde 2003
As informações contidas no nosso site são colaborações de seus usuários e podem conter erros, sendo assim, não nos responsabilizamos sobre nenhuma destas.
close
menos
mais
close
Cor dos acordes:

Cor da letra:

 

save
close
close
 
redimensionar